Kelly Osbourne - Changes Chords & Tabs

 

Changes Chords & Tabs

Kelly Osbourne Chords & Tabs

Version: 1 Type: Bass Tab 0 ratings
1 star 2 stars 3 stars 4 stars 5 stars
comments

Changes Bass Tab

-----------------------------------------------------------------------------
			     Changes - Kelly & Ozzy Osbourne
-----------------------------------------------------------------------------

Tabbed By : Kyle Morrison      


I tried as hard as i could for this tab i hope you like it. it's an awesome song!!

Tuning: standard
[ Tab from: http://www.guitartabs.cc/tabs/k/kelly_osbourne/changes_btab.html ]
IMPOTRTANT ~ = LET RING
  
Intro/Verse
G|------------------------------------------------|
D|------------------------------------------------|
A|-3~------3~------3~------3~------3/5~------5/3~-| Repeat 2x
E|------------------------------------------------|
   
CHORUS "Were Going Through Changes"
G|---------------------------------------|
D|---------------------------------------|
A|-8~---7~---5~------8~---7~---5~---3-5~-|
E|---------------------------------------|
   
Choir part
G|-------------------|
D|-------------------|
A|-10~---8~---7~-----|
E|-------------------|

Verse
G|------------------------------------------------|
D|------------------------------------------------|
A|-3~------3~------3~------3~------3/5~------5/3~-| Repeat 2x
E|------------------------------------------------|
   
CHORUS "Were Going Through Changes"
G|--------------------------------------------------------------------|
D|--------------------------------------------------------------------|
A|-8~---7~---5~------8~---7~---5~---3-5~------8~---7~---------10~---7~|
E|--------------------------------------------------------------------|
   
  "Changes     Changes"
G|-----------------------|   E
D|--------------------10~|   N    END  yey!
A|-5-7~----5-7~-----5----|   D
E|-----------------------|

I Love Rachel!
FALLEN AUTUMN ROCKS
THANKZ FOR VEIWING MY TAB
=============================================================================
Comments