Kelly Josh - Amazing Chords & Tabs

 

Amazing Chords & Tabs

Kelly Josh Chords & Tabs

Version: 1 Type: Tab 0 ratings
1 star 2 stars 3 stars 4 stars 5 stars
comments

Amazing Tab

   
this song is the shit, if you can sing play this to your girl
an you will definately get some!

tabbed by Chris Gibbons
performed by Josh kelley
song title Amazing

verse:  A    E    B    A
--------5----x----2----5-------------------------
--------5----x----4----7-------------------------
--------6----x----4----7-------------------------
--------7----2----2----5-------------------------
--------7----2----2----5-------------------------
--------5----0----2----5-------------------------

[ Tab from: http://www.guitartabs.cc/tabs/k/kelly_josh/amazing_tab.html ]
Chorus: A    E    B    A
--------0----0----2----5------------------------
--------2----0----4----7------------------------
--------2----0----4----7------------------------
--------2----2----2----5------------------------
--------0----2----2----5------------------------
--------0----0----2----5------------------------

Lead: A scale
(palyed with 2 guitars, but i like to thru this in quickly)
-----------------------------------------------
-----------------------------------------------
------0--h6-h7--9------------------------------
-----------------------------------------------
-----------------------------------------------
-----------------------------------------------


Send ?'s,Comments,Request to Chris Gibbons 
cwg_82@hotmail.com
Comments