Kelly Hunter - First Impessions Chords & Tabs

 

First Impessions Chords & Tabs

Kelly Hunter Chords & Tabs

Version: 1 Type: Tab 0 ratings
1 star 2 stars 3 stars 4 stars 5 stars
comments

First Impessions Tab

this is a song I wrote, and I'm only  14 years old, it's pretty good.  It's not all the way done, 
and the beat it fast moving until you get to the 0-3-3 part.

12-12-----12------------------------------------------------|-----12-12-----12-----------------------------------
            12----13-12-10-9-9-8-9-8-9-8-3-3-3-0-0--|---------------12----13-12-10-9-9-0-0-8-0-0-7       
----------------------------------------------------------------|---------------------------------------------------------
----------------------------------------------------------------|---------------------------------------------------------
----------------------------------------------------------------|---------------------------------------------------------
----------------------------------------------------------------|---------------------------------------------------------
[ Tab from: http://www.guitartabs.cc/tabs/k/kelly_hunter/first_impessions_tab.html ]
-0---0---0---0---0---0--0---0---0---0--0--0--0-0-0-0-0-0-0-0-0-0-0-0-0-0-0-0-0-0
12-12-13-13-13-13-12-12-10-10-10-10-9-9-8-8-8-8-3-8-0-0-0-0-3-8-0-0-0-0
------------------------------------------------------------------------------------------------------      (play twice) 
------------------------------------------------------------------------------------------------------  
------------------------------------------------------------------------------------------------------  
------------------------------------------------------------------------------------------------------  

---------------------------------------------------------------- | ---3-3-3-3-3-3-3-3--|---1-1-1-1-1-1-1--|---3-3-3-3-3-3-3-3--|---1-1-1-1--|---x-2-3
---------------------------------------------------------------- | ---3-3-3-3-3-3-3-3--|---1-1-1-1-1-1-1--|---3-3-3-3-3-3-3-3--|---1-1-1-1--|---x-2-3
-----------4---------------4---------------2-------------2--- | ---4-4-4-4-4-4-4-4--|---2-2-2-2-2-2-2--|---4-4-4-4-4-4-4-4--|---2-2-2-2--|---x-3-4     (play twice)
---------------------------------------------------------------- | ---3-3-3-3-3-3-3-3--|---1-1-1-1-1-1-1--|---3-3-3-3-3-3-3-3--|---1-1-1-1--|---x-2-3
---------------------------------------------------------------- | ---3-3-3-3-3-3-3-3--|---1-1-1-1-1-1-1--|---3-3-3-3-3-3-3-3--|---1-1-1-1--|---x-2-3
0--3--3-------0--3--3-------0--1--1-------0--1--1-------| ---3-3-3-3-3-3-3-3--|---1-1-1-1-1-1-1--|---3-3-3-3-3-3-3-3--|---1-1-1-1--|---x-2-3
Comments