Kelly Clarkson - Since Youve Been Gone Chords & Tabs

 

Since Youve Been Gone Chords & Tabs

Kelly Clarkson Chords & Tabs

Version: 3 Type: Tab 0 ratings
1 star 2 stars 3 stars 4 stars 5 stars
comments

Since Youve Been Gone Tab

   
(intro)verse:
e|--------------------------|
b|--------------------------|
G|--------------------------|
D|--------------------------|
A|-----------222------------|
E|--3(x28)x12---0x12---1111-| (x5)

pre-chorus         
e|--------------------------|
b|--------------------------|
G|--------------------------|
D|--------------------------|
A|--------------------------|
E|---333333333333-----------|(slient)

[chrous:]
   gone...     I can breathe for the first time..
   Bm    C     G     Bm              C     G
e|-------------------------------------------|
b|-------------------------------------------|
G|-4-----5-----------4---------------5-------|
D|-4-----5-----5-----4---------------5-----5-|
A|-2-----3-----5-----2---------------3-----5-|
E|-------------3---------------------------3-|   


I'm so movin' on, yeah yeah   Thanks to you now I get what I want
              Em  C    G             Am        Em          D
e|--------------------------|-------------------------------|
b|--------------------------|-------------------------------|
G|----------------5---------|--------2---------------------7|
D|------------2---5----5----|--------2---------2-----------7|
A|------------2---3----5----|------------------2-----------5|
E|---------------------3----|-------------------------------|
      
  Since you been gone
  Em             G
e|--------------------------|
b|--------------------------|
G|--------------------------|
D|-2-------------5----------|
A|-2-------------5----------|
E|---------------3----------| 

repeat [verse] 

bridge:
   G            Em        (x3) G     solo: (x4)
e|---------------------------|------|-------------|
b|---------------------------|------|-------------|
G|---------------------------|------|-------------|
D|-5------------2------------|-5----|------55-5-5-|
A|-5x8----------2x8----------|-5-x16|--23---------|
E|-3-------------------------|-3----|-------------|
[ Tab from: http://www.guitartabs.cc/tabs/k/kelly_clarkson/since_youve_been_gone_tab_ver_3.html ]
chrous:
   gone(since you been gone)     I can breathe for the first time..
   Bm    C             G               Bm              C     G
e|-------------------------------------------------------------|
b|-------------------------------------------------------------|
G|-4-----5-----------------------------4---------------5-------|
D|-4-----5-------------5---------------4---------------5-----5-|
A|-2-----3-------------5---------------2---------------3-----5-|
E|---------------------3-------------------------------------3-|   


I'm so movin' on, yeah yeah
              Em  C    G
e|--------------------------|
b|--------------------------|
G|----------------5---------|
D|------------2---5----5----|
A|------------2---3----5----|
E|---------------------3----|

Thanks to you now I get what I want
          Am        Em         Bm    C     G
e|-----------------------------------------------|
b|-----------------------------------------------|
G|--------2--------------------4-----5-----------|
D|--------2---------2----------4-----5-----5-----|
A|------------------2----------2-----3-----5-----|
E|-----------------------------------------3-----|

   I can breathe for the first time
   G     Bm              C     G
e|-------------------------------|
b|-------------------------------|
G|-------4---------------5-------|
D|-5-----4---------------5-----5-|
A|-5-----2---------------3-----5-|
E|-3---------------------------3-|   

I'm so movin' on, yeah yeah   Thanks to you now I get
              Em  C    G             Am        Em  
e|--------------------------|-----------------------------|
b|--------------------------|-----------------------------|
G|----------------5---------|--------2--------------------|
D|------------2---5----5----|--------2---------2----------|
A|------------2---3----5----|------------------2----------|
E|---------------------3----|-----------------------------|

            
You should know, that I get   , I get what I want
            Am          Em                D
e|---------------------------|--------------------------|
b|---------------------------|--------------------------|
G|----------2----------------|------------7-------------|
D|----------2-----------2----|------------7-------------|
A|----------------------2----|------------5-------------|
E|---------------------------|--------------------------|

  Since you been gone
  G
e|--------------|
b|--------------|
G|--------------|
D|5-------------|
A|5-------------|
E|3-------------| (til the end)
Comments