Kelly Clarkson - Since Youve Been Gone Chords & Tabs

 

Since Youve Been Gone Chords & Tabs

Kelly Clarkson Chords & Tabs

Version: 1 Type: Tab 0 ratings
1 star 2 stars 3 stars 4 stars 5 stars
comments

Since Youve Been Gone Tab

Intro
e|----------------------------------------------------|
B|----------------------------------------------------|
G|----------------------------------------------------|
D|----------------------------------------------------|
A|--2-2-2-2-2-2-2-2-2-2-2-2-2-2-2-2-------------------|
E|--3-3-3-3-3-3-3-3-3-3-3-3-3-3-3-3-------------------|

Verse    distorted
e|---------------------------------------------------------------------------|
B|---------------------------------------------------------------------------|
G|---------------------------------------------------------------------------|
D|----------------------------2-2-2------------------------------------------|   x5
A|-2-2-2-2-2-2-2-2-2-2-2-2----3-3-3---2-2-2-2-2-2-2-2-2-2-2-2--2-2-2-2-------|
E|-3-3-3-3-3-3-3-3-3-3-3-3------------0-0-0-0-0-0-0-0-0-0-0-0--1-1-1-1-------|

come in 2nd guitar at :33 and play along with intro
e|--7--7--7--7--7--7--7--7--7--7--7--7---------------|
B|---------------------------------------------------|
G|---------------------------------------------------|
D|---------------------------------------------------|
A|---------------------------------------------------|
E|---------------------------------------------------|

lead in into chorus after 5x intro (played for like 2-3 sec)   clean
e|---------------------------------------------------|
B|---------------------------------------------------|
G|---------------------------------------------------|
D|---------------------------------------------------|
A|--2------------------------------------------------|
E|--3------------------------------------------------|

Chorus     distorted
e|-------------------------------------------------------|
B|-------------------------------------------------------|
G|-------------------------------------------------------|
D|--4-4-4-5-5-5-5----------------------------------------|
A|--2-2-2-3-3-3-3-----5-5-5-5-5-5-5-5--------------------|
E|--------------------3-3-3-3-3-3-3-3--------------------|

e|---------------------------------------------------|
B|---------------------------------------------------|
G|---------------------------------------------------|
D|--4-4-4-5-5-5-5------------------------------------|
A|--2-2-2-3-3-3-3-----5-5-5-5-5-5-5-5----------------|
E|--------------------3-3-3-3-3-3-3-3----------------|

e|-----------------------------------------------------|
B|-----------------------------------------------------|
G|-----------------------------------------------------|
D|------------5-5-5-5----------------------------------|
A|--2-2-2-2---3-3-3-3-5-5-5-5-5-5-5-5------------------|
E|--0-0-0-0-----------3-3-3-3-3-3-3-3------------------|

e|------------------------------------------------------------|
B|------------------------------------------------------------|
G|------------------------------------------------------------|
D|--2-2-2-2-2-2-2-2----------------------------7-7-7-7-7------|
A|--0-0-0-0-0-0-0-0-----2-2-2-2-2-2-2-2--------5-5-5-5-5------|
E|----------------------0-0-0-0-0-0-0-0-----------------------|

2nd Verse    clean
e|----------------------------------------------------------------------------|
B|----------------------------------------------------------------------------|
G|----------------------------------------------------------------------------|
D|----------------------------2-2-2-------------------------------------------|  x5
A|-2-2-2-2-2-2-2-2-2-2-2-2----3-3-3-----2-2-2-2-2-2-2-2-2-2-2-2---2-2-2-2-----|
E|-3-3-3-3-3-3-3-3-3-3-3-3--------------0-0-0-0-0-0-0-0-0-0-0-0---1-1-1-1-----|

2nd guitar play along with the verse till the chorus
e|---3-3-3--3-3---3-3--5--------------------------------------|
B|------------------------------------------------------------|
G|------------------------------------------------------------|
D|------------------------------------------------------------|
A|------------------------------------------------------------|
E|------------------------------------------------------------|

at (1:20) another guitar comes in and plays this until the chorus as well
e|--7---7---7---7---7---7---7---7---7---7---7--------|
B|---------------------------------------------------|
G|---------------------------------------------------|
D|---------------------------------------------------|
A|---------------------------------------------------|
E|---------------------------------------------------|

Lead in into 2nd chorus (1:30)
e|---------------------------------------------------|
B|---------------------------------------------------|
G|---------------------------------------------------|
D|----5x5x5x5----------------------------------------|
A|----3x3x3x3----------------------------------------|
E|---------------------------------------------------|

Chorus     distorted
e|-------------------------------------------------------|
B|-------------------------------------------------------|
G|-------------------------------------------------------|
D|--4-4-4-5-5-5-5----------------------------------------|
A|--2-2-2-3-3-3-3-----5-5-5-5-5-5-5-5--------------------|
E|--------------------3-3-3-3-3-3-3-3--------------------|

e|---------------------------------------------------|
B|---------------------------------------------------|
G|---------------------------------------------------|
D|--4-4-4-5-5-5-5------------------------------------|
A|--2-2-2-3-3-3-3-----5-5-5-5-5-5-5-5----------------|
E|--------------------3-3-3-3-3-3-3-3----------------|
[ Tab from: http://www.guitartabs.cc/tabs/k/kelly_clarkson/since_youve_been_gone_tab.html ]
e|-----------------------------------------------------|
B|-----------------------------------------------------|
G|-----------------------------------------------------|
D|------------5-5-5-5----------------------------------|
A|--2-2-2-2---3-3-3-3-5-5-5-5-5-5-5-5------------------|
E|--0-0-0-0-----------3-3-3-3-3-3-3-3------------------|

e|------------------------------------------------------------|
B|------------------------------------------------------------|
G|------------------------------------------------------------|
D|--2-2-2-2-2-2-2-2----------------------------7-7-7-7-7------|
A|--0-0-0-0-0-0-0-0-----2-2-2-2-2-2-2-2--------5-5-5-5-5------|
E|----------------------0-0-0-0-0-0-0-0-----------------------|



Bridge part 1
e|---------------------------------------------------------------------|
B|---------------------------------------------------------------------|
G|---------------------------------------------------------------------|
D|--------4-4-4-----------4-4-4-------------4-4-----4-4-------4-4-4----|
A|5-5-5---2-2-2---5-5-5---2-2-2--5-5-5------2-2-----2-2-------2-2-2----|
E|3-3-3-----------3-3-3----------3-3-3---------------------------------|
	                           pm..............

Bridge part 2 (lightly distorted)
e|------------------------------------------------------|
B|------------------------------------------------------|
G|------------------------------------------------------|
D|-12-12-12-12\\-4-4-4--5-------------------------------|
A|-10-10-10-10\\-2-2-2--3-------------------------------|
E|------------------------------------------------------| 4x

Chorus- this time a little different (play till end) distorted
e|-------------------------------------------------------|
B|-------------------------------------------------------|
G|-------------------------------------------------------|
D|--4-4-4--5-5-5-5---------------------------------------|
A|--2-2-2--3-3-3-3------5-5-5-5-5-5-5-5------------------|
E|----------------------3-3-3-3-3-3-3-3------------------|

e|-------------------------------------------------------|
B|-------------------------------------------------------|
G|-------------------------------------------------------|
D|--4-4-4--5-5-5-5---------------------------------------|
A|--2-2-2--3-3-3-3------5-5-5-5-5-5-5-5------------------|
E|----------------------3-3-3-3-3-3-3-3------------------|

e|-----------------------------------------------------|
B|-----------------------------------------------------|
G|-----------------------------------------------------|
D|-------------5-5-5-5---------------------------------|
A|--2-2-2-2----3-3-3-3--5-5-5-5-5-5-5-5----------------|
E|--0-0-0-0-------------3-3-3-3-3-3-3-3----------------|

e|-------------------------------------------------------|
B|-------------------------------------------------------|
G|-------------------------------------------------------|
D|-2-2-2-2-2-2-2-2---------------------------------------|
A|-0-0-0-0-0-0-0-0-------2-2-2-2-2-2-2-2-----------------|
E|-----------------------0-0-0-0-0-0-0-0-----------------|

e|-------------------------------------------------------|
B|-------------------------------------------------------|
G|-------------------------------------------------------|
D|--4-4-4--5-5-5-5---------------------------------------|
A|--2-2-2--3-3-3-3------5-5-5-5-5-5-5-5------------------|
E|----------------------3-3-3-3-3-3-3-3------------------|

e|-------------------------------------------------------|
B|-------------------------------------------------------|
G|-------------------------------------------------------|
D|--4-4-4--5-5-5-5---------------------------------------|
A|--2-2-2--3-3-3-3------5-5-5-5-5-5-5-5------------------|
E|----------------------3-3-3-3-3-3-3-3------------------|

e|-----------------------------------------------------|
B|-----------------------------------------------------|
G|-----------------------------------------------------|
D|-------------5-5-5-5---------------------------------|
A|--2-2-2-2----3-3-3-3--5-5-5-5-5-5-5-5----------------|
E|--0-0-0-0-------------3-3-3-3-3-3-3-3----------------|

e|-------------------------------------------------------|
B|-------------------------------------------------------|
G|-------------------------------------------------------|
D|-2-2-2-2-2-2-2-2---------------------------------------|
A|-0-0-0-0-0-0-0-0-------2-2-2-2-2-2-2-2-----------------|
E|-----------------------0-0-0-0-0-0-0-0-----------------|

e|-------------------------------------------------------|
B|-------------------------------------------------------|
G|-------------------------------------------------------|
D|-2-2-2-2-2-2-2-2---------------------------------------|
A|-0-0-0-0-0-0-0-0-------2-2-2-2-2-2-2-2-----------------|
E|-----------------------0-0-0-0-0-0-0-0-----------------|

e|------------------------------------------------------|
B|------------------------------------------------------|
G|------------------------------------------------------|
D|-7-7-7-7-7-7------------------------------------------|
A|-5-5-5-5-5-5----------2~------------------------------|
E|----------------------3~------------------------------|
distorted   then    clean

End on this clean
e|--------------------------------------------------|
B|--------------------------------------------------|
G|--------------------------------------------------|
D|--------------------------------------------------|
A|-2-2-2-2-2----------------------------------------|
E|-3-3-3-3-3----------------------------------------|
Comments