Kelly Clarkson - Judas Chords & Tabs

 

Kelly Clarkson Chords & Tabs

Version: 1 Type: Tab 0 ratings
1 star 2 stars 3 stars 4 stars 5 stars
comments

Judas Tab

   
 -- Kelly Clarkson  Judas --

standard tuning EADGBE

tabbed by x-tasha-x

heyy no one else has done a tab for this song so i thought i'd have a go =D

Intro: (palm muted)
E||--------------------------------------------------------|
B||--------------------------------------------------------|
G||--------------------------------------------------------|
D||--------------------------------------------------------|
A||-------------------44-4-44-4-44-4-44-22-2-22-2-44-4-44--|
E||-22-2-22-2-22-2-22--------------------------------------|


Verse:
guitar 1
E||--------------------------------------------------------|
B||--------------------------------------------------------|
G||-------------------66-6-66-6-66-6-66-44-4-44-4-66-6-66--|x3
D||-44-4-44-4-44-4-44-66-6-66-6-66-6-66-44-4-44-4-66-6-66--|
A||-44-4-44-4-44-4-44-44-4-44-4-44-4-44-22-2-22-2-44-4-44--|
E||-22-2-22-2-22-2-22--------------------------------------|

guitar 2:
E||--------------------------------------------------------|
B||--------------------------------------------------------|
G||-------------------66-6-66-6-66-6-66-44-4-44-4-66-6-66--|
D||-44-4-44-4-44-4-44-66-6-66-6-66-6-66-44-4-44-4-66-6-66--|
A||-44-4-44-4-44-4-44-44-4-44-4-44-4-44-22-2-22-2-44-4-44--|
E||-22-2-22-2-22-2-22--------------------------------------|

then: (starts around 0:23)
E||---------------------------------------------------------------------|
B||--------------12-------10---------------------------12-------10------|
G||-11-13-14-13---------------13-----11---11-13-14-13---------------13--|
D||---------------------------------------------------------------------|
A||---------------------------------------------------------------------|
E||---------------------------------------------------------------------|


Pre Chorus:
E||-------------------|
B||-------------------|
G||-------------------|
D||-4444444444444444--|
A||-4444444444444444--|
E||-2222222222222222--|


Chorus:
guitar 1:
E||----------------------------------------------------------------------|
B||----------------------------------------------------------------------|
G||-----------------------------------9999999999999999-------------------|x2
D||-4444444444444444-7777777777777777-9999999999999999-000-----000-------|
A||-4444444444444444-7777777777777777-7777777777777777----22222---22222--|
E||-2222222222222222-5555555555555555------------------------------------|

guitar 2:
E||---------------------------------------------------------------------|
B||---------------------------------------------------------------------|
G||-11-----------14-13-----------14-11----------------------------------|
D||---------------------------------------------------000-----000-------|
A||------------------------------------------------------22222---22222--|
E||---------------------------------------------------------------------|


Before Verse 2:
guitar 1:
E||----------------------------------------|
B||----------------------------------------|
G||----------------------------------------|
D||----------------------------------------|
A||---------------------44-4-44-4-55-5-22--|
E||-22-2-22-2-00-0-00-0--------------------|

guitar 2:
E||----------------------------------------|
B||----------------------------------------|
G||---------------------66-6-66-6-77-7-44--|
D||-44-4-44-4-22-2-22-2-66-6-66-6-77-7-44--|
A||-44-4-44-4-22-2-22-2-44-4-44-4-55-5-22--|
E||-22-2-22-2-00-0-00-0--------------------|


Verse 2:
guitar 1
E||--------------------------------------------------------|
B||--------------------------------------------------------|
G||-------------------66-6-66-6-66-6-66-44-4-44-4-66-6-66--|x4
D||-44-4-44-4-44-4-44-66-6-66-6-66-6-66-44-4-44-4-66-6-66--|
A||-44-4-44-4-44-4-44-44-4-44-4-44-4-44-22-2-22-2-44-4-44--|
E||-22-2-22-2-22-2-22--------------------------------------|

guitar 2:
E||--------------------------------------------------------|
B||--------------------------------------------------------|
G||-------------------66-6-66-6-66-6-66-44-4-44-4-66-6-66--|x2
D||-44-4-44-4-44-4-44-66-6-66-6-66-6-66-44-4-44-4-66-6-66--|
A||-44-4-44-4-44-4-44-44-4-44-4-44-4-44-22-2-22-2-44-4-44--|
E||-22-2-22-2-22-2-22--------------------------------------|
[ Tab from: http://www.guitartabs.cc/tabs/k/kelly_clarkson/judas_tab.html ]
then: (starts around 1:41)
E||---------------------------------------------------------------------|
B||--------------12-------10---------------------------12-------10------|
G||-11-13-14-13---------------13-----11---11-13-14-13---------------13--|x2
D||---------------------------------------------------------------------|
A||---------------------------------------------------------------------|
E||---------------------------------------------------------------------|


Pre Chorus:
E||-------------------|
B||-------------------|
G||-------------------|
D||-4444444444444444--|
A||-4444444444444444--|
E||-2222222222222222--|


Chorus:
guitar 1:
E||----------------------------------------------------------------------|
B||----------------------------------------------------------------------|
G||-----------------------------------9999999999999999-------------------|x2
D||-4444444444444444-7777777777777777-9999999999999999-000-----000-------|
A||-4444444444444444-7777777777777777-7777777777777777----22222---22222--|
E||-2222222222222222-5555555555555555------------------------------------|

guitar 2:
E||---------------------------------------------------------------------|
B||---------------------------------------------------------------------|
G||-11-----------14-13-----------14-11----------------------------------|
D||---------------------------------------------------000-----000-------|
A||------------------------------------------------------22222---22222--|
E||---------------------------------------------------------------------|


Bridge:
guitar 1:
E||----------------------------------------------------------------------|
B||----------------------------------------------------------------------|
G||----------------------------------------------------------------------|x2
D||-4444444444444444-7777777777777777-9999999999999999-000-----000-------|
A||-4444444444444444-7777777777777777-9999999999999999----22222---22222--|
E||-2222222222222222-5555555555555555-7777777777777777-------------------|

guitar 2:
E||-------------------------------------------------------------------------|
B||-------------------------------------------------------------------------|
G||-11-11-11-11-11-11-11-11-11-11-11-11-11-11-11-11-13-13-13-13-13-13-13-13-|
D||-------------------------------------------------------------------------|
A||-------------------------------------------------------------------------|
E||-------------------------------------------------------------------------|

----------------------------------------------------------------------------|
----------------------------------------------------------------------------|
-13-13-13-13-13-13-13-13-14-14-14-14-14-14-14-14-14-14-14-14-14-14-14-14-16-|
----------------------------------------------------------------------------|
----------------------------------------------------------------------------|
----------------------------------------------------------------------------|

-----------------------------------------------|
-----------------------------------------------|
-16-16-16-16-16-16-16-16-16-16-16-16-16-16-16--|x2
-----------------------------------------------|
-----------------------------------------------|
-----------------------------------------------|


end with:
guitar 1
E||--------------------------------------------------------|
B||--------------------------------------------------------|
G||-------------------66-6-66-6-66-6-66-44-4-44-4-66-6-66--|x2
D||-44-4-44-4-44-4-44-66-6-66-6-66-6-66-44-4-44-4-66-6-66--|
A||-44-4-44-4-44-4-44-44-4-44-4-44-4-44-22-2-22-2-44-4-44--|
E||-22-2-22-2-22-2-22--------------------------------------|

guitar 2:
E||---------------------------------------------------------------------|
B||--------------12-------10---------------------------12-------10------|
G||-11-13-14-13---------------13-----11---11-13-14-13---------------13--|
D||---------------------------------------------------------------------|
A||---------------------------------------------------------------------|
E||---------------------------------------------------------------------|

then:
guitar 1:
E||-----------------------------------------------------------------|
B||-----------------------------------------------------------------|
G||-----------------------------------------------------------------|
D||-4444444444444444444444444444444444444444444444444444444-4-------|
A||-4444444444444444444444444444444444444444444444444444444-4-------|
E||-2222222222222222222222222222222222222222222222222222222-2-------|
Comments
Kelly Clarkson chords | Kelly Clarkson Judas tab