Kelly Clarkson - Behind These Hazel Eyes Chords & Tabs

 

Behind These Hazel Eyes Chords & Tabs

Kelly Clarkson Chords & Tabs

Version: 1 Type: Tab 8 ratings
1 star 2 stars 3 stars 4 stars 5 stars
comments

Behind These Hazel Eyes Tab

   
Kelly Clarkson
Behind These Hazel Eyes

I know this is 100% correct except for the bridge

Standard Tuning

Intro:
  F#  D  A  E   F#  D  A  E
e------------------------------
b------------------------------
g-----7-------------7----------
d-4-4-7--7-7-2--4-4-7--7-7-2---
a-4-4-5--7-7-2--4-4-5--7-7-2---
E-2-2----5-5-0--2-2----5-5-0---

Verse:
  F#    A        A      E
e---------------------------------
b---------------------------------
g-----2-----2-1-------2-----2-1---
d---4-----2-----2---2-----2-----2-
a-------0---------0---------------
E-2---------------------0---------
[ Tab from: http://www.guitartabs.cc/tabs/k/kelly_clarkson/behind_these_hazel_eyes_tab.html ]
Pre-Chorus:
  F#    A     D    E
e------------------------------
b------------------------------
g-------------7-7~-------------
d-4-4~--7-7~--7-7~--2-2-2-2-2~-
a-4-4~--7-7~--5-5~--2-2-2-2-2~-
E-2-2~--5-5~--------0-0-0-0-0~-

Chorus:
e-------------------------------------------------------
b-------------------------------------------------------
g------7-7------------X2-------7-7-------------7--------
d-4-4--7-7--7-7--2-2------4-4--7-7--4~~~---4-4-7--7-7-2-
a-4-4--5-5--7-7--2-2------4-4--5-5--2~~~---4-4-5--7-7-2-
E-2-2-------5-5--0-0------2-2--------------2-2----5-5-0-

Verse

Pre-Chorus

Chorus

Bridge(same as beggining of chorus): F#  D  A  E  X2

Then play the verse riff through 1 time then go back into the chorus

That it's i'm think it's all correct.  Please Rate


Comments