Kelly Clarkson - Behind These Hazel Eyes Acoustic Chords & Tabs

 

Behind These Hazel Eyes Acoustic Chords & Tabs

Kelly Clarkson Chords & Tabs

Version: 1 Type: Chords 0 ratings
1 star 2 stars 3 stars 4 stars 5 stars
comments

Behind These Hazel Eyes Acoustic Chords

   
Great song, great artist. I tried my best with this song. Its from the vh1/mtv live performance.

Edit: I added the intro and fixed a couple of things.

Capo 2

Intro:
e-----------------------------------------------------------|
b--7--8-----8-----8-----8----------3-----------3------------|
g--------7-----9-----7------4--2------2-----2-----2---------| (x2)
d----------------------------------------4------------------|
a-----------------------------------------------------------|
E-----------------------------------------------------------|

Intro: Em7,C2,G(no 3rd),D (x2)

Verse


------------------------------------------------------------|
------------------------------------------------------------|
---------0--------0-----------------0-------0---------------|
------2--------0------0------------------4-----4------------|
------------3------------3-------5----5------------5--------|
---0--------------------------3-----------------------------|

pre-chorus:

C5,G5,C2,D

[ Tab from: http://www.guitartabs.cc/tabs/k/kelly_clarkson/behind_these_hazel_eyes_acoustic_crd.html ]
Chorus:
       Em7       C2
Here I am, once again
     G(no 3rd)    D
I'm torn into pieces
       Em7             C2
can't deny it can't pretend
      G(no 3rd)           D
just thought you were the one
       Em7         C2
broken up deep inside
     A2    ----let ring------        Em7   C2
but you won't get to see the tears I cry
G(no 3rd)           D
behind these hazel eyes

Verse
Pre-chorus
Chorus

Bridge:
   Am                     G(no 3rd)
swallowed me then spit me out
      Am                 Em7
for hating you, I blame myself
      Am                  G(no 3rd)
just seeing you it kills me now
      Am               C         D
no i don't cry on the out      side anymore

Verse
Chorus(x2)


Chords:
Em7:022033
C2:032033
G(no 3rd):3x0033
D:xx0232
C5:x355xx
G5:3554xx
A2:x02200
Am:x02210


Questions or comments email me at sportsfr3ak549@yahoo.com
Comments