Kelly Clarkson - Because Of You Chords & Tabs

 

Because Of You Chords & Tabs

Kelly Clarkson Chords & Tabs

Version: 1 Type: Bass Tab

Because Of You Bass Tab

“Because Of You” by Kelly Clarkson

Everything in this song is quarter notes, and you let each note ring.  You’ll have to
listen to the song to know when to play each part, and there are certain parts that
require you to hold only for a certain period of time, which is hard to translate into
tabs, so yeah, just listen to the song a few times to get the timing down.

Intro:
G|-----------------|
D|-----------------|
A|-----------------| don’t play
E|-----------------|

Verse 1:
G|----------------------------------------------------------------|
D|----------------------------------------------------------------|
A|---------3---3-----------6---6-----------3---3-----------6---6--|
E|-4---4-----------1---1-----------4---4-----------1---1----------|

G|-------------------------------------------------------------------|
D|-------------------------------------------------------------------|
A|---------3---3-----------6---6-----------3---3-----------6---6/12--|
E|-4---4-----------1---1-----------4---4-----------1---1-------------|

Chorus:
G|----------------------------------------------------------------|
D|----------------------------------------------------------------|
A|---------4---4---6---6---6---6-----------4---4---6---6---6---6--|
E|-1---1---------------------------1---1--------------------------|

G|----------------------------------------------------------------|
D|----------------------------------------------------------------|
A|---------4---4---6---6---6---6-----------4---4---6---6---6---6--|
E|-1---1---------------------------1---1--------------------------|

G|--------------------------------------------------------|
D|--------------------------------------------------------|
A|-4---4---3---3---6---6---6---6---4---4---4---4---6---6--|
E|--------------------------------------------------------|

Verse 2:
G|----------------------------------------------------------------|
D|----------------------------------------------------------------|
A|---------3---3-----------6---6-----------3---3-----------6---6--|
E|-4---4-----------1---1-----------4---4-----------1---1----------|
[ Tab from: http://www.guitartabs.cc/tabs/k/kelly_clarkson/because_of_you_btab.html ]
G|-------------------------------------------------------------------|
D|-------------------------------------------------------------------|
A|---------3---3-----------6---6-----------3---3-----------6---6/12--|
E|-4---4-----------1---1-----------4---4-----------1---1-------------|

Chorus:
G|----------------------------------------------------------------|
D|----------------------------------------------------------------|
A|---------4---4---6---6---6---6-----------4---4---6---6---6---6--|
E|-1---1---------------------------1---1--------------------------|



G|----------------------------------------------------------------|
D|----------------------------------------------------------------|
A|---------4---4---6---6---6---6-----------4---4---6---6---6---6--|
E|-1---1---------------------------1---1--------------------------|

G|----------------------------------------------------------------|
D|----------------------------------------------------------------|
A|-4---4---3---3---6---6---6---6---4---4---4---4---6---6---6---6--|
E|----------------------------------------------------------------|

Interlude:
G|----------------------------------------------------------------|
D|----------------------------------------------------------------|
A|-3---3-----------6---6---6---6---3---3-----------6---6---6---6--|
E|---------1---1---------------------------1---1------------------|

G|-------------------------------------------------------------------|
D|-------------------------------------------------------------------|
A|-3---3-----------6---6---6---6---3---3-----------4---4---6---6/12--|
E|---------1---1---------------------------1---1---------------------|

Chorus:
G|----------------------------------------------------------------|
D|----------------------------------------------------------------|
A|---------4---4---6---6---6---6-----------4---4---6---6---6---6--|
E|-1---1---------------------------1---1--------------------------|

G|----------------------------------------------------------------|
D|----------------------------------------------------------------|
A|---------4---4---6---6---6---6-----------4---4---6---6---6---6--|
E|-1---1---------------------------1---1--------------------------|

G|------------------------------------------------------|
D|------------------------------------------------------|
A|-4---4---3---3---6---6---6---6---4---4---4---4---6\0--|
E|------------------------------------------------------|