Kelley Dylan - Paranoid Chords & Tabs

 

Paranoid Chords & Tabs

Kelley Dylan Chords & Tabs

Version: 1 Type: Tab 0 ratings
1 star 2 stars 3 stars 4 stars 5 stars
comments

Paranoid Tab

#-----------------------------------------------------------------------------#
#-- File created with Instab - http://www.pconline.com/~smcarey/instab.html --#
#-----------------------------------------------------------------------------#

Author/Artist: Me/black sabbath
Title: Paranoid
Album: none
Transcribed by: Dylan Kelley
Email: allthesmallthings56444@yahoo.com

------------------------------------------------------------------------------
------------------------------------------------------------------------------
------------------------------------------------------------------------------
------------------------------------------------------------------------------
------------------------------------------------------------------------------
------------------------------------------------------------------------------
   intro: guitar 1:                                                           

------------------------------------------------------------------------------
------------------------------------------------------------------------------
-----------0-2-----0-2--------------------------------------------------------
-2-2-2-0-2-----0-2------------------------------------------------------------
-0-0-0------------------------------------------------------------------------
------------------------------------------------------------------------------
  guitar 2:                                                                   

-------0-------0--------------0-------0---------------------------------------
-------1-------1--------------1-------1---------------------------------------
-------2-------2--------------2-------2---------------------------------------
-2-2-2-2-------2--------2-2-2-2-------2---------------------------------------
-0-0-0-0-------0--------0-0-0-0-------0---------------------------------------
------------------------------------------------------------------------------
  bass:                                                                       

------------------------------------------------------------------------------
------------------------------------------------------------------------------
-----------0-2-----0-2--------------------------------------------------------
-------0-2-----0-2------------------------------------------------------------
-0-0-0------------------------------------------------------------------------
------------------------------------------------------------------------------
  verse/interlude: guitar 1:                                                  
[ Tab from: http://www.guitartabs.cc/tabs/k/kelley_dylan/paranoid_tab.html ]
-5---5---1---1---3---3---8---5------------------------------------------------
---5---5---1---1---3---3---8--------------------------------------------------
------------------------------------------------------------------------------
------------------------------------------------------------------------------
------------------------------------------------------------------------------
------------------------------------------------------------------------------
  guitar 2:                                                                   

-0-0-0-0-1-1-1-1-3-3-3-3-0-3-0------------------------------------------------
-1-1-1-1-1-1-1-1-0-0-0-0-1-0-1------------------------------------------------
-2-2-2-2-2-2-2-2-0-0-0-0-0-0-2------------------------------------------------
-2-2-2-2-3-3-3-3-0-0-0-0-2-0-2------------------------------------------------
-0-0-0-0-3-3-3-3-2-2-2-2-3-2-0------------------------------------------------
---------1-1-1-1-3-3-3-3---3--------------------------------------------------
  bass:                                                                       

------------------------------------------------------------------------------
------------------------------------------------------------------------------
------------------------------------------------------------------------------
---2---2----------------------------------------------------------------------
-0---0-----3---3---2---2-3---0------------------------------------------------
---------1---1---3---3-----3--------------------------------------------------
  bridge/chorus: guitar 1:                                                    

-8---5---3---1---8---5---3---1---8---5----------------------------------------
---8---5---3-------8---5---3-------8------------------------------------------
------------------------------------------------------------------------------
------------------------------------------------------------------------------
------------------------------------------------------------------------------
------------------------------------------------------------------------------
  guitar 2:                                                                   

-0-0-0-0-3-3-1---0-0-0-0-3-3-1---0-0-0----------------------------------------
-1-1-1-1-0-0-1---1-1-1-1-0-0-1---1-1-1----------------------------------------
-0-0-2-2-0-0-2---0-0-2-2-0-0-2---0-0-2----------------------------------------
-2-2-2-2-0-0-3---2-2-2-2-0-0-3---2-2-2----------------------------------------
-3-3-0-0-2-2-3---3-3-0-0-2-2-3---3-3-0----------------------------------------
---------3-3-1-----------3-3-1------------------------------------------------
  bass:                                                                       

------------------------------------------------------------------------------
------------------------------------------------------------------------------
------------------------------------------------------------------------------
---2---2-----------2---2-----------2------------------------------------------
-3---0-----2-----3---0-----2-----3---0----------------------------------------
---------3---1-----------3---1------------------------------------------------
                                                                              

Comments