Keith Urban - Raining On Sunday Acoustic Chords & Tabs

 

Raining On Sunday Acoustic Chords & Tabs

Keith Urban Chords & Tabs

Version: 1 Type: Tab 0 ratings
1 star 2 stars 3 stars 4 stars 5 stars
comments

Raining On Sunday Acoustic Tab

   
Tabbed by:Jeremy Heninger 
Email:hhstennis_playa03@yahoo.com

Tuning:Standard (capo on 4th), I wrote this entirely for acoustic.
I'll throw some of the lyrics in just to sort of help guide you. 
It's a fairly basic song if you know chords well enough.
All chords and notes are relevant to capo on 4th. Please rate!
Chords I use:
Em-022000
Cadd9-x32030
Gmaj-320030
D-xx0230
A/D-x02200
Dm7-xx0211
Verse:
e|-0^--0--------------0^--0----------------0~--0~--------------|
B|-0^---1------3------0^---1------3--------0~--3~--------------|
G|-0^----0------0-----0^----0------0-------0~--0~-----0~-------|
D|-2^--------2---2~---2^--------2---2~-----2~--2~--0h2---------|
A|-2^-------3-3-------2^-------3-3---------2~--3~--------------|
E|-0^------0----------0^------0------------0~--x~--------------|
                                       it ticks..on you
e|---------2--------0~--------0~----------------0---0~---------|
B|-----3---3--------0~---0-0--3~------------3---3---3~---------|
G|------0--2-----0--0~----0---0~-----0-------0--0---2~---------|
D|---2-----0--0h2---2~--------2~--0h2-----0-----0-0-0~---------|
A|--2-2----x--------2~--------3~---------2-2----2---x~---------|
E|-3-------x--------0~--------x~--------3-------3---x~---------|
  who said..      It'll run us....love could use...apart.

Chorus:
e|-0-0--00000-00--0-0--00000-00--0-0--00000-00--0-0--00000-00--|
B|-3-3--33333-00--1-1--11111-00--3-3--33333-00--3-3--33333-00--|
G|-0-0--00000-00--0-0--00000-00--0-0--00000-00--0-0--00000-00--|
D|-0-0--00000-00--2-2--22222-00--2-2--22222-00--0-0--00000-00--|
A|-2-2--22222-00--0-0--00000-00--3-3--33333-00--2-2--22222-00--|
E|-3-3--33333-00--0-0--00000-00--x-x--xxxxx-00--3-3--33333-00--|
   raining......  storming.....  We'll hide..afternoon.......
e|-0-0--00000-00--1-1--11111-00--0-0--00000-00--0~0~-0-0--00000|
B|-3-3--33333-00--1-1--11111-00--3-3--33333-00--3~3~-3-3--33333|
G|-0-0--00000-00--2-2--22222-00--0-0--00000-00--0~2~-0-0--00000|
D|-0-0--00000-00--0-0--00000-00--2-2--22222-00--0~0~-0-0--00000|
A|-2-2--22222-00--x-x--xxxxx-00--3-3--33333-00--2~x--2-2--22222|
E|-3-3--33333-00--x-x--xxxxx-00--x-x--xxxxx-00--3~x--3-3--33333|
   whatever..     take care...   we've got.....do..  on Sunday.
e|-1-1--11111-00--0-0--00000~----------------------------------|
B|-1-1--11111-00--3-3--33333~----------------------------------|
G|-2-2--22222-00--0-0--00000~----------------------------------|
D|-0-0--00000-00--2-2--22222~----------------------------------|
A|-x-x--xxxxx-00--3-3--33333~----------------------------------|
E|-x-x--xxxxx-00--x-x--xxxxx~----------------------------------|
[ Tab from: http://www.guitartabs.cc/tabs/k/keith_urban/raining_on_sunday_acoustic_tab.html ]
Verse 2:
e|-----0-0--------0-0--------0-0--------0--------0-0-------0-0-|
B|------0----------3----------3----------3--------0---------3--|
G|---0----0-----0----0----------0-----2--------0----0----0----0|
D|--2-2--------2-2---------0---------0-0------2-2-------2-2----|
A|-2----------3-----------2-2-------0--------2---------3-------|
E|-----------------------3-------------------------------------|
   Your love..a cross..  kiss is..  prayer..surrender..we both.
e|-----0-0--------0-0--------0-------------------|
B|------3----------3----------3~-----------------|
G|--------0-----2----2-----2------*Repeat Chorus*|
D|---0---------0-0--------0-0--------------------|
A|--2-2-------0----------0-----------------------|
E|-3---------------------------------------------|
   water wash.love wash..
Chords for solo:
e|-0-0--00000-00--0-0--00000-00--0-0--00000-00--0-0--00~-------|
B|-3-3--33333-00--3-3--33333-00--2-2--22222-00--0-0--02~-------|
G|-0-0--00000-00--2-2--22222-00--0-0--00000-00--0-0--02~-------|
D|-0-0--00000-00--0-0--00000-00--2-2--22222-00--2-2--22~-------|
A|-2-2--22222-00--x-x--xxxxx-00--3-3--33333-00--2-2--20~-------|
E|-3-3--33333-00--x-x--xxxxx-00--x-x--xxxxx-00--0-0--00~-------|
   
Chorus 3: spoken softly                     *band re-enters*
e|-----0-0--------0--------0-0-----------0~--0-0--00000-00-----|
B|------3----------1--------3------------3~--3-3--33333-00-----|
G|--------0-----0--------0----0----------2~--0-0--00000-00-----|
D|---0---------2-2------2-2---------0----0~--0-0--00000-00-----|
A|--2-2-------0--------3-----------2-2---x---2-2--22222-00-----|
E|-3------------------------------3------x---3-3--33333-00-----|
  Raining..  storming..we'll hide....afternoon..whatever comes..
e|-1-1--11111-00--0-0--00000-00--0~0~--0-0--00000-00--1-1--11111|
B|-1-1--11111-00--3-3--33333-00--3~3~--3-3--33333-00--1-1--11111|
G|-2-2--22222-00--0-0--00000-00--0~2~--0-0--00000-00--2-2--22222|
D|-0-0--00000-00--2-2--22222-00--0~0~--0-0--00000-00--0-0--00000|
A|-x-x--xxxxx-00--3-3--33333-00--2~x---2-2--22222-00--x-x--xxxxx|
E|-x-x--xxxxx-00--0-0--00000-00--3~x---3-3--33333-00--x-x--xxxxx|
  take care..     we've got.... sunday.
                   (play these last 3 chords til fade out!)
e|-00--0-0--00000--0-0--00000-00--1-1--11111-00--0-0--00000-00-|
B|-00--3-3--33333--3-3--33333-00--1-1--11111-00--3-3--33333-00-|
G|-00--0-0--00000--0-0--00000-00--2-2--22222-00--0-0--00000-00-|
D|-00--2-2--22222--0-0--00000-00--0-0--00000-00--2-2--22222-00-|
A|-00--3-3--33333--2-2--22222-00--x-x--xxxxx-00--3-3--33333-00-|
E|-00--x-x--xxxxx--3-3--33333-00--x-x--xxxxx-00--x-x--xxxxx-00-|
                   When it's raining on Sunday................ 

That's it please rate and make any comments, enjoy!Peace out..

| ^  upsrtoke
| /  slide up
| \  slide down
| h  hammer-on
| p  pull-off
| ~  let ring
| +  harmonic
| x  Mute note
Comments