Keith Toby - I Wanna Talk About Me Chords & Tabs

 

I Wanna Talk About Me Chords & Tabs

Keith Toby Chords & Tabs

Version: 1 Type: Tab 1 rating
1 star 2 stars 3 stars 4 stars 5 stars
comments

I Wanna Talk About Me Tab

This is the intro to the Toby Keith song '' I wanna talk about me''  played in the key of  E. This tab is for a 7-string and uses the low B. This is the way I hear it,and play it live. It can also be played on a baritone guitar, starting on the A string.  "s"= slide up  "h"= hammer on 
 Thanks, Hank     hanksterlee@yahoo.com
 
e-----------------------------------------------------------------------------------------------------------------------------------------------------------------------------------------------
b-----------------------------------------------------------------------------------------------------------------------------------------------------------------------------------------------
g-----------------------------------------------------------------------------------------------------------------------------------------------------------------------------------------------
d--------------------------------------------------4-----------------------------------------------------------------------------------------------------------------4--------6-----4-----6
a-------------------------2-----2----4-s---6--------------------------------------------------------7------------------------------------2---2-----4--s--6------------4------2----4
e-----0-----2--s--4----------------------------------------------------4-h--5--5---s--7--s--9--------------------0-----2---s---4---------------------------------------------------
low b--------------------------------------------------2-----4-s---5--------------------------------------------------------------------------------------------------------------------
 
 
e-----------------------------------------------------------------------------------------------------------------------------------------------------------------------------------------------
b------------------------------------------------------------------------------------------------------------------------------------------------------------------------
g-----------------------------------------------------------------------------------------------------------------------------------------------------------------------------------------------
d-----------------------------------------------4--------------------------------------------------------------------------------------------------------------------4--------6-----4-----2
a------------------------2-----2----4-s---6---------------------------------------------------------7------------------------------------2---2-----4--s--6------------4------2----0
e-----0-----2--s--4--------------------------------------------------4-h--5--5---s--7--s--9--------------------0-----2---s---4---------------------------------------------------
low b-----------------------------------------------2-----4-s---5-----------------------------------------------------------------------------------------------------------------------
 
 
 
  




[ Tab from: http://www.guitartabs.cc/tabs/k/keith_toby/i_wanna_talk_about_me_tab.html ]
Comments