Keating Ronan - When You Say Nothing At All Chords & Tabs

 

When You Say Nothing At All Chords & Tabs

Keating Ronan Chords & Tabs

Version: 2 Type: Tab 0 ratings
1 star 2 stars 3 stars 4 stars 5 stars
comments

When You Say Nothing At All Tab

This is a really simple song to learn. You shouldn't find it too
difficult to learn.

--------------2-3-------------2-3- its that simple.This plays x6
------3-----3---------3-----3----- then chrods play through the rest 
--------0---------------0-0------- of the verses
----0-----0---------2-------------
------------------3---------------
--3-------------------------------
[ Tab from: http://www.guitartabs.cc/tabs/k/keating_ronan/when_you_say_nothing_at_all_tab_ver_2.html ]
It then moves onto the bridge which goes as follows

------0-------2----3~~-2~~---2---
------0-------3----3~~-3~~-----3-
----0---0---2---2--0~~-2~~-2-----
--2-------0--------2~~-0~~-------
-------------------3~~-0~~-------
-------------------0~~-0~~-------

Then the whole thing plays again. i dont know the solo though. 
So you will have to make do with that.
If you have any comments about this tablature mail me at
dj_mar2@hotmail.com  good luck
Comments