Keane - Everybodys Changing Chords & Tabs

 

Everybodys Changing Chords & Tabs

Keane Chords & Tabs

Version: 2 Type: Bass Tab 0 ratings
1 star 2 stars 3 stars 4 stars 5 stars
comments

Everybodys Changing Bass Tab

   
Intro
G----------|---------|----------|----------|----------|
D----------|-3--3-3--|----------|--5---5-5-|----------|
A--3---3-3-|---------|--5---5-5-|----------|--3---3-3-|
E----------|---------|----------|----------|----------|
  C          F         Dm         G          C
   x4        x4        x2          x2         x4

Verse 1
G----------|---------|----------|----------|----------|
D----------|-3--3-3--|----------|--5---5-5-|----------|
A--3---3-3-|---------|--5---5-5-|----------|--3---3-3-|
E----------|---------|----------|----------|----------|
  C          F         Dm         G          C
   x4        x4        x2          x2         x4


G----------|---------|----------|----------|----------|
D----------|-3--3-3--|----------|--5---5-5-|----------|
A--3---3-3-|---------|--5---5-5-|----------|----------|
E----------|---------|----------|----------|-3h5-5-5--|
  C          F         Dm         G          Am
   x4        x4        x2          x2         x4

Chorus 1

G----------------|---------------|---------------|----------------|
D--3--3---3-3--3-|-5--5---5-5--5-|---------------|--3--3---3-3--3-|
A----------------|---------------|-3--3---3-3--3-|----------------|
E----------------|---------------|---------------|----------------|
  F                G               C               F
[ Tab from: http://www.guitartabs.cc/tabs/k/keane/everybodys_changing_btab_ver_2.html ]
G----------------|---------------|---------------|----------------|
D----------------|-5--5---5-5--5-|-2--2---2-2--2-|--7--7---7-7--7-|
A--5--5---5-5--5-|---------------|---------------|----------------|
E----------------|---------------|---------------|----------------|
  Dm                G               Em              Am

G----------------|---------------|---------------|----------------|
D----------------|-5--5---5-5--5-|---------------|----------------|
A--5--5---5-5--5-|---------------|-3--3---3-3--3-|--3--3---3-3--3-|
E----------------|---------------|---------------|----------------|
  Dm                G               C              C

G-----------------------|----------------------|-----------------------|---------------------|
D-----------------------|----|-----------------|-----------------------|---------------------|
A--5-h7-7--5-5-5h7-7-5--|-5-h7-7--5-5-5h7-7-5--|-5-h7-7--5-5-5h7-7-5-/-|-10-10-10-x-10-10-10-|
E-----------------------|----------------------|-----------------------|---------------------|
  Em                      Em                     Em                      G                         

Play second half of first verse again

Then the first 10 bars of chourus

then second half of verse again

then first 10 bars of chorus

then 

G----------------|---------------|---------------------------|----------------|
D----------------|---------------|-3--3---3-3--3---3--3--3--3|----------------|
A--3--3---3-3--3-|-5--5---5-5--5-|---------------------------|-3--------------|
E----------------|---------------|---------------------------|----------------|
  C                Dm              F 
   x2                               x2
Comments