Keane - Bedshaped Chords & Tabs

 

Bedshaped Chords & Tabs

Keane Chords & Tabs

Version: 1 Type: Tab 3 ratings
1 star 2 stars 3 stars 4 stars 5 stars
comments

Bedshaped Tab

   
##################################################################################
# This file is the author's own work and represents their interpretation of the  #
# song. You may only use this file for private study, scholarship, or research.  #
##################################################################################

'BEDSHAPED' by Keane
from album 'Hopes And Fears'

transcripted by Teddy
teddypeak@wp.pl


intro:
   E         A          C#m      B   Bsus4
E|-----12-11--------9-7------9-7------------|
B|-9-9--------------------------------------|
G|-----------13--13-----9--9-----8-8-9-9-9--|
D|------------------------------------------|
A|------------------------------------------|
E|------------------------------------------|
[ Tab from: http://www.guitartabs.cc/tabs/k/keane/bedshaped_tab.html ]
   E         A            C#m      B   Bsus4    E
E|-----12-11--------9-7-9------9-7------------|
B|-9-9----------------------------------------|
G|-----------13--13-------9--9-----8-8-9-9-9--|
D|--------------------------------------------|
A|--------------------------------------------|
E|--------------------------------------------|



bridge:
E|-4-5---5-7---7-11---|
B|-----5-----5--------|
G|--------------------|
D|--------------------|
A|--------------------|
E|--------------------|

E,A,C#m,B (choir singing)

solo:
E|-9/12~~-12~~~~~~-9~~-9--------------------------=-|
B|------------------------9h12-9h12-9--7-5---5---5-=-|
G|-----------------------------------------6---6---=-|
D|-------------------------------------------------=-|
A|-------------------------------------------------=-|
E|------------------------------------------------=--|

E|-9/12~~-12~~~~-169~~-9~~--------------------------|
B|--------------------------9h12-9h12-9--7-5---5---5-|
G|-------------------------------------------6---6---|
D|---------------------------------------------------|
A|---------------------------------------------------|
E|---------------------------------------------------|


  

E|--17--14------------------------------------|
B|----------16--13----------------------------|
G|------------------14--11--------------------|
D|--------------------------13--9--7--13--14--|
A|--------------------------------------------|
E|--------------------------------------------|
Comments