Keane - Bedshaped Chords & Tabs

 

Bedshaped Chords & Tabs

Keane Chords & Tabs

Version: 1 Type: Chords 2 ratings
1 star 2 stars 3 stars 4 stars 5 stars
comments

Bedshaped Chords

   
keane
bedshaped

intro (guitar1)
[ Tab from: http://www.guitartabs.cc/tabs/k/keane/bedshaped_crd.html ]
e/------------12-11--------------9/7--------------9/7-----------------------------play x2----0------
b/-------------------------------------------------------------------------------------------0------(harmonic)
g/-13----13-----------13----13-------9------9----------6------6----9---11--------------------1 1(13)-2(14)-1(13)
d/-------------------------------------------------------------------------------------------2------
a/--------------------0---0-----0------------------------------------------------------------2------
e/--0--0----0------------------------9---9-----9-------7---7----7--9----7--------------------0------


guitar 2

e-0-0-0-0-0-0-0-0-0-0-4-4-4-4-4-x-x-x-2
b-0-0-0-0/4-2-2-2-2p0-5-5-5-5-5-4-4h5-x
g-1-1-1-----2-2-2-2-2-6-6-6-6p4-4-4-4-x
d-2-2-2-----2-2-2-2-2-6-6-6-6-6-4-4-4-x
a-2-2-2-----0-0-0-2-2-4-4-4-4-4-2-2-2-x
e-0-0-0-------------------------------x


Comments