Kc And The Sunshine Band - Play That Funky Music Chords & Tabs

 

Play That Funky Music Chords & Tabs

Kc And The Sunshine Band Chords & Tabs

Version: 2 Type: Tab 0 ratings
1 star 2 stars 3 stars 4 stars 5 stars
comments

Play That Funky Music Tab

Artist: KC And The Sunshine Band
Song: Play That Funky Music
Tabbed By: Gadasher (GCF_14)
Email: feander_14@yahoo.com
Tuning: EADGBE

Intro:

E|-----------------------------------------------|
B|-----------------------------------------------|
G|-----------------------------------------------|
D|------4--2--4-------2h4-----4--2--4-------2h4--|
A|---------------2h4-------------------2h4-------|
E|--2----------------------2---------------------|

Verse:

E|-----------------------------------------------|
B|-----------------------------------------------|
G|-----------------------------------------------|
D|------4--2--4-------2h4-----4--2--4-------2h4--|
A|---------------2h4-------------------2h4-------|
E|--2----------------------2---------------------|

Pre-Chorus:
[ Tab from: http://www.guitartabs.cc/tabs/k/kc_and_the_sunshine_band/play_that_funky_music_tab_ver_2.html ]
E|---------------------------------------------------------------------|
B|---------------------------------------------------------------------|
G|---------------------------------------------------------------------|
D|---------------------------------------------------------------------|
A|--2-2-2-0-2---2-0-2---2-0-2-2-2-0-2----2-0-2---2-0-2---2/555555555---|
E|---------------------------------------------------------------------|

Chorus:

E|------------------------------|
B|------------------------------|
G|------------------------------| Play this part 6 times
D|-------7--5--7-------5h7------|
A|----------------5h7-----------|
E|--5-5-------------------------|

Last part of the Chorus:

E|-------------------------------------------------|
B|-------------------------------------------------|
G|-------------------------------------------------|
D|--2--0-----0------------0--2--0------------------|
A|--------2------2--1--0-----------2--1--0---------|
E|------------------------------------------0--2---|

REPEAT VERSES:
REPEAT CHORUS:
ADLIB:
REPEAT CHORUS:



.................................END........................................
Comments