Katy Perry - Waking Up In Vegas Chords & Tabs

 

Katy Perry Chords & Tabs

Version: 2 Type: Tab 0 ratings
1 star 2 stars 3 stars 4 stars 5 stars
comments

Waking Up In Vegas Tab

Katy Perry - Waking Up In  Vegas
Tabbed by:  Jeff Martin
Tuning:  Standard

..a guilty pleasure (for sure)... and Tabbed at the request of my daughters!

Enjoy, as all the parts are included and should be quite accurate (relative to the 
other versions)!  Peace

Intro

Guitar 1: Play F power chord on 1st fret (then turn up volume)... stay on F with rhythm.
          
Guitar 2
|-------------------------------------:||
|-------------------------------------:||
|-14-14-14-9-9-9-10-10-10-10-10-10-10-:||
|-xx-xx-xx-x-x-x-xx-xx-xx-xx-xx-xx-xx-:||
|-12-12-12-7-7-7-08-08-08-08-08-08-08-:||X3
|-------------------------------------:||

|-------------------------------------------|
|-------------------------------------------|
|-17-17-17-15-15-15-14-14-14-12-12-12-15-14-|
|-xx-xx-xx-xx-xx-xx-xx-xx-xx-xx-xx-xx-xx-xx-|
|-15-15-15-13-13-13-12-12-12-10-10-10-13-12-|
|-------------------------------------------|

Verse 1: (Same as Intro)

Pre-Chorus

Guitar 1
|---------------|---------------|---------------|----------|
|---------------|---------------|---------------|----------|
|---------------|---------------|---------------|-55555555-|
|-5-5---7-7-----|-5-5---7-7-----|-5-5---7-7-----|-55555555-|
|-3-3-0-5-5-0-8-|-3-3-0-5-5-0-8-|-3-3-0-5-5-0-8-|-33333333-|
|-------------6-|-------------6-|-------------6-|----------|
Guitar 2
|---------|----------------|---------|----------|
|---------|----------------|---------|----------|
|-55-77-9-|-55-77-14-12-10-|-55-77-9-|-55555555-|
|-xx-xx-x-|-xx-xx-xx-xx-xx-|-xx-xx-x-|-xxxxxxxx-|
|-33-55-7-|-33-55-12-10-08-|-33-55-7-|-33333333-|
|---------|----------------|---------|----------|

Chorus
Guitar 1
|------------------------:||   |-------------------------|
|------------------------:||   |-------------------------|
|------------------------:||   |-------------------------|
|-3-3-10-10-8-8-10-10-10-:||   |-3-3-10-10-8-8-8-8/12-10-|
|-3-3-10-10-8-8-10-10-10-:||   |-3-3-10-10-8-8-8-8/12-10-|
|-1-1-08-08-6-6-08-08-08-:||X3 |-1-1-08-08-6-6-6-6/10-08-|

Guitar 2 (this riff is used with different effect throughout)
  PM>>>>>>>>>>>>>
|---8--8--8--8---:||
|--6--6--6--6-6--:||
|-5--5--5--5-----:||
|----------------:||
|----------------:||
|----------------:||

Verse 2:  Same as verse 1 for Guitar 2

Guitar 1 at 1:19

  
|---8--8--8--8---|
|--6--6--6--6-6--|
|-5--5--5--5-----|
|----------------|
|----------------|
|----------------|
[ Tab from: http://www.guitartabs.cc/tabs/k/katy_perry/waking_up_in_vegas_tab_ver_2.html ]
Pre-Chorus & Chorus:  Same as above

Bridge:

Guitar 1

     pick slide                    pick slide
|-----------|-----------------|-----------|
|-----------|-----------------|-----------|
|-8---------|-----------------|-8---------|
|-8---------|-----------------|-8---------|
|-6---------|-----------------|-6---------|
|-6-x______-|-1-1-1-1-1-1-1-1-|-6-x______-|

Guitar 2
|---|-------------------------------------------|---|
|---|-------------------------------------------|---|
|-8-|-17-17-17-17-17-14-14-15-15-15-15-15-14-14-|-8-|
|-8-|-xx-xx-xx-xx-xx-xx-xx-xx-xx-xx-xx-xx-xx-xx-|-8-|
|-6-|-15-15-15-15-15-12-12-13-13-13-13-13-12-12-|-6-|
|-6-|-------------------------------------------|-6-|

Guitar 1
  PM>>>>>>>>>>>>>
|---8--8--8--8---:||--------|
|--6--6--6--6-6--:||--------|
|-5--5--5--5-----:||--------|
|----------------:||-555555-|
|----------------:||-333333-|
|----------------:||--------|

Guitar 2
|------------|------------------|------------|--------|
|------------|------------------|------------|--------|
|--5--7---10-|--5--7---14-12-10-|--5--7---10-|-555555-|
|------------|---------xx-xx-xx-|------------|-xxxxxx-|
|-3--5--08---|-3--5--5-12-10-08-|-3--5--08---|-333333-|
|------------|------------------|------------|--------|

Interlude:
Guitar 1              Guitar 2 (at ending)
  PM>>>>>>>>>>>>>
|---8--8--8--8---:||  |---15--15--13-|
|--6--6--6--6-6--:||  |-13--13--13---|
|-5--5--5--5-----:||  |--------------|
|----------------:||  |--------------|
|----------------:||  |--------------| 
|----------------:||  |--------------|

Chorus 3
Guitar 1
|------------------------:||   |-------------------------|
|------------------------:||   |-------------------------|
|------------------------:||   |-------------------------|
|-3-3-10-10-8-8-10-10-10-:||   |-3-3-10-10-8-8-8-8/12-10-|
|-3-3-10-10-8-8-10-10-10-:||   |-3-3-10-10-8-8-8-8/12-10-|
|-1-1-08-08-6-6-08-08-08-:||X3 |-1-1-08-08-6-6-6-6/10-08-|

Guitar 2                         Outro
|---13--15--13--13--17-15-13-:|| |---13--15--13--13--17-15-13---------|
|-13--13--13--13--13---------:|| |-13--13--13--13--13--------15-13-15-|
|----------------------------:|| |------------------------------------|
|----------------------------:|| |------------------------------------|
|----------------------------:|| |------------------------------------|
|----------------------------:|| |------------------------------------|


Comments