Katy Perry - Waking Up In Vegas Chords & Tabs

 

Waking Up In Vegas Chords & Tabs

Katy Perry Chords & Tabs

Version: 1 Type: Bass Tab

Waking Up In Vegas Bass Tab

Start playing with the pre-chorus

G-----------------------------------------|
D-----------------------------------------|
A----33-----55----------------------------|     X3
E------------------66------6----6---------|                 

Chourus
G-------------------------------|
D-------------------------------|    X4
A--------33--11-----1---3-------|
E---11--------------------------|

In the middle of 2nd Verse
E-----1\7-----|

Pre-chorus
G-----------------------------------------|
D-----------------------------------------|
A----33-----55----------------------------|     X3
E------------------66------6----6---------|                 
[ Tab from: http://www.guitartabs.cc/tabs/k/katy_perry/waking_up_in_vegas_btab.html ]
Chorus
G-----------------------------|
D-----------------------------|      X4
A--------33--11-----1---3-----|
E---11------------------------|

"you got me into this...."
G-----------------------------------------|
D-----------------------------------------|
A----------333----------------------------|
E---111-----------666---------101010------|

" And get some...." 
G---------------------------------------|
D---------------------------------------|
A----33-----55--------------------------|    X3
E------------------66------6----6-------|                 

Chorus, then till the end 
G--------------------------------|
D--------------------------------|                          
A--------33--11-----1s3----------|
E---11---------------------------|