Katy Perry - Part Of Me Chords & Tabs

 

Katy Perry Chords & Tabs

Version: 1 Type: Tab 0 ratings
1 star 2 stars 3 stars 4 stars 5 stars
comments

Part Of Me Tab

   
-- Katy Perry  Part Of Me (acoustic)--

standard tuning EADGBE

tabbed by x-tasha-x

guitar 1:
[Capo 5]

guitar 2:
[NO CAPO]

Here's a video of Katy performing this live acoustically for the strumming pattern:
http://www.youtube.com/watch?v=RFV2nw7IcsE


INTRO
guitar 1:
E||-0000-0000-0000000-00-|
B||-1111-1111-1111111-00-|
G||-2222-0000-2222222-00-|x2
D||-2222-2222-3333333-00-|
A||-0000-3333-3333333-22-|
E||-------------------33-|


VERSE:
Days like this I want to drive away...
guitar 1:
E||-0000-0000-0000000-00-|
B||-1111-1111-1111111-00-|
G||-2222-0000-2222222-00-|x4
D||-2222-2222-3333333-00-|
A||-0000-3333-3333333-22-|
E||-------------------33-|

guitar 2:(palm muted)
(starts at 'chewed me up and spit me out')
E||----------------------|  |------------------------------------------------|
B||----------------------|  |------------------------------------------------|
G||----------------------|x2|-77777777-1010101010101010----------------------|x2
D||----------------------|  |-77777777-1010101010101010-8888888888888-101010-|
A||----------------------|  |-55555555- 8 8 8 8 8 8 8 8-8888888888888-101010-|
E||----------------------|  |---------------------------6666666666666- 8 8 8-|


CHORUS:
This is the part of me...
guitar 1:
E||-0000-0000-0000000-00-|
B||-1111-1111-1111111-00-|
G||-2222-0000-2222222-00-|x4
D||-2222-2222-3333333-00-|
A||-0000-3333-3333333-22-|
E||-------------------33-|

guitar 2:
E||-5~----8~---8~--------|
B||-6~--- 8~---8~--------|
G||-7~---10~---7~--------|x4
D||-7~---10~---8~--------|
A||-5~--- 8~---8~--------|
E||------------6~--------|

[ Tab from: http://www.guitartabs.cc/tabs/k/katy_perry/part_of_me_tab.html ]
VERSE 2:
I just want to throw my phone away...
guitar 1:
E||-----------0000000-00-|  |-0000-0000-0000000-00-|
B||-----------1111111-00-|  |-1111-1111-1111111-00-|
G||-----------2222222-00-|x1|-2222-0000-2222222-00-|x3
D||-----------3333333-00-|  |-2222-2222-3333333-00-|
A||-----------3333333-22-|  |-0000-3333-3333333-22-|
E||-------------------33-|  |-------------------33-|

guitar 2:(palm muted)
E||------------------------------------------------|
B||------------------------------------------------|
G||-77777777-1010101010101010----------------------|x4
D||-77777777-1010101010101010-8888888888888-101010-|
A||-55555555- 8 8 8 8 8 8 8 8-8888888888888-101010-|
E||---------------------------6666666666666- 8 8 8-|



CHORUS


BRIDGE:
Look at me I'm sparkling...
guitar 1:
E||-3~-------0~---0~---|  |-33333333-0000-0000-333333333333-|
B||-3~-------1~---1~---|  |-33333333-1111-1111-333333333333-|
G||-0~-------2~---0~---|x2|-00000000-2222-0000-000000000000-|
D||-0~-------2~---2~---|  |-00000000-2222-2222-000000000000-|
A||-2~-------0~---3~---|  |-22222222-0000-3333-222222222222-|
E||-3~-----------------|  |-33333333-----------333333333333-|

guitar 2:
E||- 8~------5~----8~---|  |- 8 8 8 8 8 8 8 8 5555- 8 8 8 8- 8 8 8 8 8 8 8 8 8 8 8 8-|
B||- 8~------6~--- 8~---|  |- 8 8 8 8 8 8 8 8-6666- 8 8 8 8- 8 8 8 8 8 8 8 8 8 8 8 8-|
G||- 7~------7~---10~---|x2|- 9 9 9 9 9 9 9 9-7777-10101010- 9 9 9 9 9 9 9 9 9 9 9 9-|
D||-10~------7~---10~---|  |-1010101010101010-7777-10101010-101010101010101010101010-|
A||-10~------5~--- 8~---|  |-1010101010101010-5555- 8 8 8 8-101010101010101010101010-|
E||- 8~-----------------|  |- 8 8 8 8 8 8 8 8 -------------- 8 8 8 8 8 8 8 8 8 8 8 8-|



END WITH CHORUS:
This is the part of me...
guitar 1:
E||-0000-0000-0000000-00-|
B||-1111-1111-1111111-00-|
G||-2222-0000-2222222-00-|x8
D||-2222-2222-3333333-00-|
A||-0000-3333-3333333-22-|
E||-------------------33-|

guitar 2:
E||-5~----8~---8~--------|
B||-6~--- 8~---8~--------|
G||-7~---10~---7~--------|x8
D||-7~---10~---8~--------|
A||-5~--- 8~---8~--------|
E||------------6~--------|
Comments