Katie Melua - Downstairs To The Sun (full Version) Chords & Tabs

 

Downstairs To The Sun (full Version) Chords & Tabs

Katie Melua Chords & Tabs

Version: 1 Type: Tab 0 ratings
1 star 2 stars 3 stars 4 stars 5 stars
comments

Downstairs To The Sun (full Version) Tab

                              Downstairs to the sun                               

Maybe a little confusing, if you want a more clearly tab, download a pdf @ 

http://www.lostinstyle.com/supermarijke/gitaar/downstairs.pdf

It's with the lyrics, and notes + timing! Enjoy! www.supermarijke.tk



Spoor 1
                                                                  
E||---------------------|------------------|---------------------|
B||-----------3h2-------|--------0--2------|--------0--5h4-0-----|
G||--------2------2-----|------------------|---------------------|
D||-----2------------2--|-----2------------|-----4------------4--|
A||--0------------------|--0---------------|--0------------------|
E||---------------------|------------------|---------------------|


                                                             
------------------|--------------------|-----------0--------|
--------0--4------|-----------0--------|--0-----------0-----|
------------------|--------2-----2-----|-----1-----------2--|
-----4------------|-----2-----------2--|--------2-----------|
--0---------------|--2-----------------|--------------------|
------------------|--------------------|--------------------|


                                                                                  
---------------------|------------------|---------------------|------------------|
-----------3h2-------|--------0--2------|-----------3h2-------|--------0--2------|
--------2------2-----|------------------|--------2------2-----|------------------|
-----2------------2--|-----2------------|-----2------------2--|-----2------------|
--0------------------|--0---------------|--0------------------|--0---------------|
---------------------|------------------|---------------------|------------------|


                                                              
---------------------|------------------|--------------------|
--------0--5h4-0-----|--------0--4------|-----------0--------|
---------------------|------------------|--------2-----2-----|
-----4------------4--|-----4------------|-----2-----------2--|
--0------------------|--0---------------|--2-----------------|
---------------------|------------------|--------------------|


                                                              
-----------0--------|---------------------|------------------|
--0-----------0-----|-----------3h2-------|--------0--2------|
-----1-----------2--|--------2------2-----|------------------|
--------2-----------|-----2------------2--|-----2------------|
--------------------|--0------------------|--0---------------|
--------------------|---------------------|------------------|


                                                                  
---------------------|---------------------|---------------------|
-----------3h2-------|-----------3h2-------|--------0--5h4-0-----|
--------2------2-----|--------2------2-----|---------------------|
-----2------------2--|-----2------------2--|-----4------------4--|
--0------------------|--0------------------|--0------------------|
---------------------|---------------------|---------------------|


                                                                
---------------------|--------------------|-----------0--------|
--------0--5h4-0-----|-----------0--------|--0-----------0-----|
---------------------|--------2-----2-----|-----1-----------2--|
-----4------------4--|-----2-----------2--|--------2-----------|
--0------------------|--2-----------------|--------------------|
---------------------|--------------------|--------------------|


                                                                 
---------------------|---------------------|-----------2--------|
-----------3h2-------|-----------3h2-------|--------3-----3-----|
--------2------2-----|--------2------2-----|-----2-----------2--|
-----2------------2--|-----2------------2--|--0-----------------|
--0------------------|--0------------------|--------------------|
---------------------|---------------------|--------------------|


                                                               
-----------0--------|-----------1--------|--0--------1--------|
--------3-----3-----|--------3-----3-----|-----3--------3-----|
-----2-----------2--|-----3-----------3--|--------3--------3--|
--0-----------------|--3-----------------|--------------------|
--------------------|--------------------|--------------------|
--------------------|--------------------|--------------------|


                                                                                  
-----------2--------|-----------0--------|-----------1--------|--0--------1------|
--------3-----3-----|--------3-----3-----|--------3-----3-----|-----3------------|
-----2-----------2--|-----2-----------2--|-----3-----------3--|--------3---------|
--0-----------------|--0-----------------|--3-----------------|------------------|
--------------------|--------------------|--------------------|------------------|
--------------------|--------------------|--------------------|------------------|


                                                               
--------------------|--------------0-----|--------------------|
-----------3--------|-----------3-----1--|-----------3--------|
-----0--3-----3--0--|-----0--3-----------|-----0--3-----3--0--|
--------------------|--------------------|--------------------|
--------------------|--3-----------------|--------------------|
--3-----------------|--------------------|--3-----------------|


                                                               
--------------0-----|--------------------|--------------0-----|
-----------3-----1--|-----------3--------|-----------3-----1--|
-----0--3-----------|-----0--3-----3--0--|-----0--3-----------|
--------------------|--------------------|--------------------|
--3-----------------|--------------------|--3-----------------|
--------------------|--3-----------------|--------------------|


                                                               
--------------------|--------------------|-----------1--------|
-----------1--------|-----------1--------|--------3-----3-----|
--------------2-----|--------2-----2-----|-----2-----------2--|
--------2--------2--|-----2-----------2--|--0-----------------|
--0--3--------------|--0-----------------|--------------------|
--------------------|--------------------|--------------------|


                                                                 
--0--------1--------|---------------------|---------------------|
-----3--------3-----|-----------3h2-------|-----------3h2-------|
--------2--------2--|--------2------2-----|--------2------2-----|
--------------------|-----2------------2--|-----2------------2--|
--------------------|--0------------------|--0------------------|
--------------------|---------------------|---------------------|


                                                                 
---------------------|---------------------|--------------------|
--------0--5h4-0-----|--------0--5h4-0-----|-----------0--------|
---------------------|---------------------|--------2-----2-----|
-----4------------4--|-----4------------4--|-----2-----------2--|
--0------------------|--0------------------|--2-----------------|
---------------------|---------------------|--------------------|


                                                                 
-----------0--------|---------------------|---------------------|
--0-----------0-----|-----------3h2-------|-----------3h2-------|
-----1-----------2--|--------2------2-----|--------2------2-----|
--------2-----------|-----2------------2--|-----2------------2--|
--------------------|--0------------------|--0------------------|
--------------------|---------------------|---------------------|


                                                                  
---------------------|---------------------|---------------------|
-----------3h2-------|-----------3h2-------|--------0--5h4-0-----|
--------2------2-----|--------2------2-----|---------------------|
-----2------------2--|-----2------------2--|-----4------------4--|
--0------------------|--0------------------|--0------------------|
---------------------|---------------------|---------------------|

[ Tab from: http://www.guitartabs.cc/tabs/k/katie_melua/downstairs_to_the_sun_full_version_tab.html ]
                                                                
---------------------|--------------------|-----------0--------|
--------0--5h4-0-----|-----------0--------|--0-----------0-----|
---------------------|--------2-----2-----|-----1-----------2--|
-----4------------4--|-----2-----------2--|--------2-----------|
--0------------------|--2-----------------|--------------------|
---------------------|--------------------|--------------------|


                                                                 
---------------------|---------------------|-----------2--------|
-----------3h2-------|-----------3h2-------|--------3-----3-----|
--------2------2-----|--------2------2-----|-----2-----------2--|
-----2------------2--|-----2------------2--|--0-----------------|
--0------------------|--0------------------|--------------------|
---------------------|---------------------|--------------------|


                                                               
-----------0--------|-----------1--------|--0--------1--------|
--------3-----3-----|--------3-----3-----|-----3--------3-----|
-----2-----------2--|-----3-----------3--|--------3--------3--|
--0-----------------|--3-----------------|--------------------|
--------------------|--------------------|--------------------|
--------------------|--------------------|--------------------|


                                                                                  
-----------2--------|-----------0--------|-----------1--------|--0--------1------|
--------3-----3-----|--------3-----3-----|--------3-----3-----|-----3------------|
-----2-----------2--|-----2-----------2--|-----3-----------3--|--------3---------|
--0-----------------|--0-----------------|--3-----------------|------------------|
--------------------|--------------------|--------------------|------------------|
--------------------|--------------------|--------------------|------------------|


                                                               
--------------------|--------------0-----|--------------------|
-----------3--------|-----------3-----1--|-----------3--------|
-----0--3-----3--0--|-----0--3-----------|-----0--3-----3--0--|
--------------------|--------------------|--------------------|
--------------------|--3-----------------|--------------------|
--3-----------------|--------------------|--3-----------------|


                                                               
--------------0-----|--------------------|--------------0-----|
-----------3-----1--|-----------3--------|-----------3-----1--|
-----0--3-----------|-----0--3-----3--0--|-----0--3-----------|
--------------------|--------------------|--------------------|
--3-----------------|--------------------|--3-----------------|
--------------------|--3-----------------|--------------------|


                                                               
--------------------|--------------------|-----------1--------|
-----------1--------|-----------1--------|--------3-----3-----|
--------------2-----|--------2-----2-----|-----2-----------2--|
--------2--------2--|-----2-----------2--|--0-----------------|
--0--3--------------|--0-----------------|--------------------|
--------------------|--------------------|--------------------|


                                                               
--0--------1--------|-----------2--------|-----------2--------|
-----3--------3-----|--------3-----3-----|--------3-----3-----|
--------2--------2--|-----2-----------2--|-----2-----------2--|
--------------------|--0-----------------|--0-----------------|
--------------------|--------------------|--------------------|
--------------------|--------------------|--------------------|


                                                               
-----------3--------|-----------3--------|-----------2--------|
-----1--3-----3--1--|-----1--3-----3--1--|--------3-----3-----|
--------------------|--------------------|-----2-----------2--|
--------------------|--------------------|--0-----------------|
--3-----------------|--3-----------------|--------------------|
--------------------|--------------------|--------------------|


                                                               
-----------2--------|-----------3--------|-----------3--------|
--------3-----3-----|-----1--3-----3--1--|-----1--3-----3--1--|
-----2-----------2--|--------------------|--------------------|
--0-----------------|--------------------|--------------------|
--------------------|--3-----------------|--3-----------------|
--------------------|--------------------|--------------------|


                                                               
--------------------|--------------------|-----------1--------|
-----------2--------|-----------2--------|--------3-----3-----|
--------2-----2-----|--------2-----2-----|-----3-----------3--|
-----2-----------2--|-----2-----------2--|--3-----------------|
--0-----------------|--0-----------------|--------------------|
--------------------|--------------------|--------------------|


                                                               
-----------1--------|--------------------|--------------------|
--------3-----3-----|-----------2--------|-----------2--------|
-----3-----------3--|--------2-----2-----|--------2-----2-----|
--3-----------------|-----2-----------2--|-----2-----------2--|
--------------------|--0-----------------|--0-----------------|
--------------------|--------------------|--------------------|


                                                               
-----------1--------|-----------1--------|--------------------|
--------3-----3-----|--------3-----3-----|-----------3--------|
-----3-----------3--|-----3-----------3--|-----0--3-----3--0--|
--3-----------------|--3-----------------|--------------------|
--------------------|--------------------|--------------------|
--------------------|--------------------|--3-----------------|


                                                               
--------------0-----|--------------------|--------------0-----|
-----------3-----1--|-----------3--------|-----------3-----1--|
-----0--3-----------|-----0--3-----3--0--|-----0--3-----------|
--------------------|--------------------|--------------------|
--3-----------------|--------------------|--3-----------------|
--------------------|--3-----------------|--------------------|


                                                                                  
--------------------|--------------0-----|-------------------|-----------0-------|
-----------3--------|-----------3-----1--|-----------1-------|-----------1-------|
-----0--3-----3--0--|-----0--3-----------|-------------------|--------2----------|
--------------------|--------------------|--------2-------2--|-----2----------2--|
--------------------|--3-----------------|--0--3-------------|--0----------------|
--3-----------------|--------------------|-------------------|-------------------|


                                                                                  
-----------1--------|--0--------1--------|-------------------|-----------0-------|
--------3-----3-----|-----1--------3-----|-----------1-------|-----------1-------|
-----2-----------2--|--------2--------2--|-------------------|--------2----------|
--0-----------------|--------------------|--------2-------2--|-----2----------2--|
--------------------|--------------------|--0--3-------------|--0----------------|
--------------------|--------------------|-------------------|-------------------|


                                                                                  
-----------1--------|--0--------1--------|-------------------|-----------0-------|
--------3-----3-----|-----1--------3-----|-----------1-------|-----------1-------|
-----2-----------2--|--------2--------2--|-------------------|--------2----------|
--0-----------------|--------------------|--------2-------2--|-----2----------2--|
--------------------|--------------------|--0--3-------------|--0----------------|
--------------------|--------------------|-------------------|-------------------|


                                                           
-----------1--------|--0--------1--------|---------------||
--------3-----3-----|-----1--------3-----|---------------||
-----2-----------2--|--------2--------2--|---------------||
--0-----------------|--------------------|--0------------||
--------------------|--------------------|---------------||
--------------------|--------------------|---------------||


Comments