Katie Melua - Belfast Song Chords & Tabs

 

Belfast Song Chords & Tabs

Katie Melua Chords & Tabs

Version: 1 Type: Tab 0 ratings
1 star 2 stars 3 stars 4 stars 5 stars
comments

Belfast Song Tab

Hey guys.

This is repeated throughout the song,so it's a nice easy one to play.
[ Tab from: http://www.guitartabs.cc/tabs/k/katie_melua/belfast_song_tab.html ]
e ----------------------------------------------------------|
B -----------1----------------1----------------1------------|
G -----0-2------2-0-----0-2------0-2------0-2-----2-0-------|
D -3-----------------3-----------------0--------------------|
A ----------------------------------------------------------|
E ----------------------------------------------------------|


e ----------------------------------------------------------|
B ------------1---------------------------------------------|
G ------0-2-------2-0---------------------------------------|
D --0--------------------0----------------------------------|
A ----------------------------------------------------------|
E ----------------------------------------------------------|

Have fun....
Jen:)
Comments