Katatonia - Cold Ways Chords & Tabs

 

Cold Ways Chords & Tabs

Katatonia Chords & Tabs

Version: 1 Type: Tab 0 ratings
1 star 2 stars 3 stars 4 stars 5 stars
comments

Cold Ways Tab

   
KATATONIA-COLD WAYS from the album "Discouraged ones"
=>Transcribed by The Pastor somewhere in France

=>TUNE DOWN ONE STEP<=

RIFF A:
|------------------------------------------------------------------------------||
|------------------------------------------------------------------------------||
|-----5--------7----9-9-9-9-9-9-9-9------5--------7----12-12-12-12-12-12-12-12-||
|---7---7----9---9--9-9-9-9-9-9-9-9----7---7----9---9--12-12-12-12-12-12-12-12-||
|-5--------7--------7-7-7-7-7-7-7-7--5--------7--------10-10-10-10-10-10-10-10-||
|------------------------------------------------------------------------------||



RIFF B:
|----------------------------------------------------------------------------------||
|----------------------------------------------------------------------------------||
|-5-5-5-5-5-5-5-5-4-4-4--------------5-5-5-5-5-5-5-5-5-5-5-9-9-9-9-4-4/5-5---------||
|-5-5-5-5-5-5-5-5-4-4-4-5-5-2-2-2-2--5-5-5-5-5-5-5-5-5-5-5-9-9-9-9-4-4/5-5\2-2-2-2-||
|-3-3-3-3-3-3-3-3-2-2-2-5-5-2-2-2-2--3-3-3-3-3-3-3-3-3-3-3-7-7-7-7-2-2/3-5\2-2-2-2-||
|-----------------------3-3-0-0-0-0---------------------------------------\0-0-0-0-||


[ Tab from: http://www.guitartabs.cc/tabs/k/katatonia/cold_ways_tab.html ]
RIFF C (Guitar1):
|---------------------------------||
|---------------------------------||
|---------------------------------||
|-2-2-2-2-2-2-2-2-2-2-2-2-2-2-2-2-||
|-2-2-2-2-2-2-2-2-2-2-2-2-2-2-2-2-||
|-0-0-0-0-0-0-0-0-0-0-0-0-0-0-0-0-||

RIFF C (Guitar2):
|---------------------------------||
|-9-----------9-------------------||
|---8-8h10------8-10h11p10------8-||
|----------8---------------11-9---||
|---------------------------------||
|---------------------------------||



RIFF D (Guitar1):
|-----------------------------------------------------------------||
|-----------------------------------------------------------------||
|-5-5-5-5-5-5-5-5-7-7-7-7-7-7-7-7-9-9-9-9-9-9-9-9-4-4-4-4-4-4-4-4-||
|-5-5-5-5-5-5-5-5-7-7-7-7-7-7-7-7-9-9-9-9-9-9-9-9-4-4-4-4-4-4-4-4-||
|-3-3-3-3-3-3-3-3-5-5-5-5-5-5-5-5-7-7-7-7-7-7-7-7-2-2-2-2-2-2-2-2-||
|-----------------------------------------------------------------||

RIFF D (Guitar2):
|-------------------||
|-------------12-11-||
|-12----11----------||
|-------------------||
|-------------------||
|-------------------||



=>PLAYLIST:
        RIFF A x4
        RIFF B x2
        RIFF C x2
        Part with accoustic guitar (I can't transcribe it)
        RIFF A x4
        RIFF B x1
        Accoustic guitar
        RIFF C x2
        RIFF A x4
        RIFF B x1
        Fade out on Riff D


If you have some suggestions or corrections e-mail me: Pastor@wanadoo.fr
Comments