Kataklysm - The Awakener Chords & Tabs

 

The Awakener Chords & Tabs

Kataklysm Chords & Tabs

Version: 1 Type: Tab 0 ratings
1 star 2 stars 3 stars 4 stars 5 stars
comments

The Awakener Tab

   
KATAKLYSM - "The Awakener"
from the album 'Temple Of Knowledge'
tabbed by AJMB (toti@caleida.pt)

Normal tuning
   . = palm mute


BASS INTRO:
|---------------------------------------------------------------|
|--7----5----7---8----7----8---10----8----10---12----10----9----|
|----00---00---0---00---00---0----00---00----0----00----00---0--|
|---------------------------------------------------------------|


LEAD1:
|-------------------------------|
|-------------------------------|
|-------------------------------|
|----2-0-----------2-0----------|
|--0-----3--2--3-0-----3--2-----|
|----------------------------3--|


FILL1 (bass):
|----------------------------------|
|--7--7-7--------------------------|
|---------10--10-10-7--7-7-8--8-8--|
|----------------------------------|


RIFF1:
|---------------------------------------------------|
|---------------------------------------------------|
|--------------44-55-44-----------------------------|
|--22-55-44-55----------55----55-44-55-00-55-44-00--|
|--------------------------33-----------------------|
|---------------------------------------------------|


RIFF2:
   F#
|----------|
|----------|
|----------|
|----------|
|--4--4-4--|
|--2--2-2--|


RIFF3:
|---------------------------------------------|
|---------------------------------------------|
|---------------------------------------------|
|---------------------------------------------|
|-----------------------------------55--------|
|--2222-33-22-55-22-3333-2222-33-22----55-33--|


RIFF4:
   F#         G  F#     D A G
|------------------------------|
|------------------------------|
|------------------------------|
|-----------------------7------|
|--4----------5--4------5-7-5--|
|--2--3-2-5-2-3--2--3-2---5-3--|
      . . . .       . .

RIFF5:
   D C#C   B  E C  E D  E D C#C   B  E C A#A
|---------------------------------------------|
|---------------------------------------------|
|---------------------------------------------|
|--7-6-5-5-4----5----7----7-6-5-5-4----5-3-2--|
|--5-4-3-3-2--0-3--0-5--0-5-4-3-3-2--0-3-1-0--|
|---------------------------------------------|
   . . . .                . . . .


RIFF6:
   D C#C   B  E     C  E     D  E     D C#C   B  E     C A#A
|-------------------------------------------------------------|
|-------------------------------------------------------------|
|-------------------------------------------------------------|
|--7-6-5-5-4--------5--------7--------7-6-5-5-4--------5-3-2--|
|--5-4-3-3-2--0-0-0-3--0-0-0-5--0-0-0-5-4-3-3-2--0-0-0-3-1-0--|
|-------------------------------------------------------------|
   . . . .                            . . . .


RIFF7:
   D C#C   B               D       C
|-------------------------------------------|
|-------------------------------------------|
|-------------------------------------------|
|--7-6-5-5-4-------5-4-----7-7-----5-5------|
|--5-4-3-3-2-2-4-5-----5-4-5-5-----3-3------|
|------------------------------5-3-----3-2--|
   . . . .                 . .

[ Tab from: http://www.guitartabs.cc/tabs/k/kataklysm/the_awakener_tab.html ]
LEAD2:
|----------------------------------------------------------------|
|----------------------------------------------------------------|
|---------9--12-11---9-----------------9-11-12-11-12-14-12--/16--|
|--9---12--------------12--9----9---12---------------------------|
|----------------------------12----------------------------------|
|----------------------------------------------------------------|


RIFF8:
|--------------------------------------------------------------
|--------------------------------------------------------------
|--------------------------------------------------------------
|-----------22222222----------22----------------------22222222-
|--22-55-44----------22-55-44----00-22222222-22-55-44----------
|--------------------------------------------------------------

          ------------------------------------|
          ------------------------------------|
          ------------------------------------|
          -7777-44-5555-22-4444-00-2222-------|
          ------------------------------4444--|
          ------------------------------------|


RIFF9:
   B              F  B
|--------------------------------------|
|--------------------------------------|
|-----------------5--------------------|
|--444444--444444-3--444444--4-4--4-4--|
|--222222--222222----222222--2-2--2-2--|
|--------------------------------------|


RIFF10:
   B              F  B
|-----------------------------------------------|
|-----------------------------------------------|
|-----------------5-----------------------------|
|--444444--444444-3--444444--7777-44-5555-2222--|
|--222222--222222----222222---------------------|
|-----------------------------------------------|


RIFF11:
   B                F B                F B                F
|-----------------------------------------------------------
|-----------------------------------------------------------
|-------------------5------------------5------------------5-
|-------------------3------------------3------------------3-
|--2222222222222222---2222222222222222---2222222222222222---
|-----------------------------------------------------------

           B
          -------------------|
          -------------------|
          -------------------|
          ---------4-4--4-4--|
          -222222--2-2--2-2--|
          -------------------|


SONG STRUCTURE:
BASS INTRO: played w/ A5 chord (x02xxx) on guitar 4 times
LEAD1 (4X) w/ FILL1
RIFF1 (4X)
RIFF2 (1X)
RIFF3 (2X)
RIFF4 (2X)
RIFF3 (2X)
RIFF4 (2X)
RIFF3 (4X)
RIFF4 (2X)
RIFF5 (2X)
RIFF6 (2X)
RIFF7 (2X)
RIFF7 (2X) - w/ LEAD2
RIFF8 (2X)
RIFF9 (5X)
RIFF10 (1X)
RIFF9 (1X)
RIFF10 (1X)
RIFF8 (2X)
RIFF11 (2X)


LYRICS:
The West wind 's erranted breeze swifted by the vivid Clay.
As the old Bataillon of invisible Forets haunt the sylvan Mount...
And the Avatar was channelling Yew 's wilderness decent
Surroundings...
To celebrate an Oath undertaken at his 19th Anniversary...
A Rebirth on the 19th of February 1991.

...This historical Alliance of the Brother Houde;
Set to Gem to Summon the Legends...
And the Elixir was delivered to the Royal Clan.
And the Elixir was delivered to the Royal Clan.
A Name, A Shape and a Number was yielded...
>From the Exhibited Landscape....From the Exhibited Landscape,

9 distincted letters were granted into a Word of sovereignty...
Then was graphed the 1st of the 9...
Gates of Kataklysmity.

A 9 pointed Star lodging the 3 crafted Sigils...
>From the Darkened Earth... From the Darkened Earth,
3 Trilogies adding 3 Trinities and 3 Volumes...
The 1st Order of the 9 has begone.

A year will come when 3 Nines will collide...
This year will be 1999.
The 1st Day of Renewal ending the year with this
1st Day of Betrayal... 666 1st
Another Rebirth on the 19th of February 1999...
A Crusader will make, himself heard...
The Awakener... 666 1st
By the Woods of the Ecclesiastic Houde.
By the Woods of the Ecclesiastic Houde.
Comments