Kashmir - Vote 4 Dick Taid Chords & Tabs

 

Vote 4 Dick Taid Chords & Tabs

Kashmir Chords & Tabs

Version: 1 Type: Tab 0 ratings
1 star 2 stars 3 stars 4 stars 5 stars
comments

Vote 4 Dick Taid Tab

   
Hi! This is the best song Kashmir ever maded! But It is from the best album Cruzential,
and they don't play music like that eny more! That is so depressing.

But here it is.

INTRO:
e:---12-12-10----10---12-12-10----10-----|
B:------------12----8----------12--------|
G:-9-------------------------------- x 8-|
D:---------------------------------------|
A:---------------------------------------|
E:---------------------------------------|

VERS:
e:--------------------------------------------------------------------|
H:--------------------------------------------------------------------|
G:----------4---4---4-----4-----------------------4---4---4-----4---4-| x 4
D:------2---------------2-----2---0-----0-----2---------------2---4---|
A:----2-------0---3---2---------0---0-------2-------0---3---2---------|
E:--3-----0-----------------3---------2---3-----0---------------------|

e:----------------------------------------      ---------|
H:----------------------------------------      ---------|
G:------5---5-----5---4-----4---4---4---4-      -3----2--|
D:----4---------4---------2--------------- x 3  -2----1--|
A:--3-----5---0-----2---------------------      -3----2--|
E:----------------------0-----2---3---0---      ---------|

TONZ:
e-------------------------------------------------|
h-------------------------------------------------|
g--------------------5--4--3-----3-----3-----4--4-| x 2
d--5--2--5--2--5--2--5--4--3--4--3--4--3--4--4--4-|
a--5--2--5--2--5--2--3--2--1--4--1--4--1--4--2--2-|
e--3--0--3--0--3--0-----------2-----2-----2-------|

INTERLUDE:
e:------------------------------------------------------------------|
H:------------------------------------------------------------------|
G:------------------------------------------------------------------| x 2
D:--9------------------------------------9--------------------------|
A:--7--9--10--7--9--5--7--4--5--2--4--5--7--9--10--7--9--5--8-8-8-8-|
E:-----7---8--5--7--3--5--2--3--0--2--3-----7---8--5--7--3--6-6-6-6-|
[ Tab from: http://www.guitartabs.cc/tabs/k/kashmir/vote_4_dick_taid_tab.html ]
OMKVÆD:
e:----------------------------------------------------------------------------|
H:----------------------------------------------------------------------------|
G:--9--9--9---------------------------------------------------------------x 4-|
D:--9--9--9--9-9-9-9--5--5--5-----------5--5--5--2-2-2-2--3--3--3--2-2-2-2----|
A:--7--7--7--9-9-9-9--5--5--5--5-5-5-5--3--3--3--2-2-2-2--1--1--1--2-2-2-2----|
E:-----------7-7-7-7--3--3--3--2-2-2-2-----------0-0-0-0-----------0-0-0-0----|

SOLO:
e:------------------------------------------------------------ --|
H:------------------------------------------------------------ --|
G:--9--9--9--11-11-11-11--12--12--12--14-14-14-14--16--16--16- --|
D:------------------------------------------------------------ --|
A:--7--7--7---9--9--9--9--10--10--10--12-12-12-12--14--14--14- --|
E:------------------------------------------------------------ --|

   [1                                        [2
e:------------------------------------------ -------------------------------|
H:------------------------------------------ -------------------------------|
G:--16-16-16-16--19--16--16--16-16-14-14-14- -16--14--12--11-11-11-11--9--8-|
D:------------------------------------------ -------------------------------|
A:--14-14-14-14--17--14--14--14-14-12-12-12- -14--12--10---9--9--9--9--7--6-|
E:------------------------------------------ -------------------------------|

e:--------12-------------------------------------------------------|
H:--15^17----15-12-15-13-12-------------12-------------------------|
G:--------------------------14-12-14^16----14-11-14-12-11----11----|
D:--------------------------------------------------------14----12-|
A:-----------------------------------------------------------------|
E:-----------------------------------------------------------------|

e:--------------------------------------------------------------------|
H:--------------------------------12-------12-13----12-13-15-12-13-15-|
G:-----11-12----11-12-14-11-12-14----12-14-------14-------------------|
D:--14-------14-------------------------------------------------------|
A:--------------------------------------------------------------------|
E:--------------------------------------------------------------------|

e:--12----14----14^15-----12-15-14-12----12----------------------|
H:-----12----12--------15-------------15----12--15--13--12-------|
G:---------------------------------------------------------14^16-|
D:---------------------------------------------------------------|
A:---------------------------------------------------------------|
E:---------------------------------------------------------------|

OUTRO:
e:--------------------------------------------|
H:--------------------------------------------|
G:--------------------------------------------|
D:--9---------------------------------------2-|
A:--7--9--10--7--9--5--7--4--5--3-3-3-3-3-3-2-|
E:-----7---8--5--7--3--5--2--3--1-1-1-1-1-1-0-|
Comments