Kashmir - Ruby Over Diamonds Chords & Tabs

 

Ruby Over Diamonds Chords & Tabs

Kashmir Chords & Tabs

Version: 1 Type: Bass Tab 0 ratings
1 star 2 stars 3 stars 4 stars 5 stars
comments

Ruby Over Diamonds Bass Tab

   
Ruby over diamonds by Kashmir
From the album Zitilites
Tabbed by: Casper Nørgaard

Standard tuning (G-D-A-E)

3/4 - Play staccato 

Intro/verse
|---------------------------------------------------------------------------|
|*-------------3-3-3-------------3-3-3-------------------------------------*|
|*-5-5-5-5-5-5-------5-5-5-5-5-5-------------------------1-1-1-1-1-1-3x3x3-*|
|--------------------------------------5-5-5-5-5-5-1-1-1--------------------|


1st Chorus
|--------------------------------------------------------------------------|
|--------------------------------------------------------------------------|
|-------------1-1-1--5-5-5-5-5-5-3-3-3-------------1-1-1-------------0-0-3-|
|-3-3-3-3-3-3--------------------------3-3-3-3-3-3-------1-1-1-1-1-1-------|


Verse (same as 1st verse)
[ Tab from: http://www.guitartabs.cc/tabs/k/kashmir/ruby_over_diamonds_btab.html ]
2nd Chorus
|--------------------------------------------------------------------------|
|--------------------------------------------------------------------------|
|-------------1-1-1--5-5-5-5-5-5-3-3-3-------------1-1-1-------------0-0-0-|
|-3-3-3-3-3-3--------------------------3-3-3-3-3-3-------1-1-1-1-1-1-------|


Solo (same as verse)

3rd Verse
|---------------------------------------------------------------------------|
|--------------3-3-3-------------3-3-3--------------------------------------|
|--5-5-5-5-5-5-------5-5-5-5-5-5-------------------------1-1-1-1-1-1-3x3x3--|
|--------------------------------------5-5-5-5-5-5-1-1-1--------------------|

|-------------------------------------2-2-2-2-2-2-------------------------|
|-------------3-3-3-------------3-3-5-------------3-3-3-------------------|
|-5-5-5-5-5-5-------5-5-5-5-5-5-------------------------1-1-1-1-1-1-3x3x3-|
|-------------------------------------------------------------------------|


Chorus (same as 2nd Chorus)

End
|------|
|------|
|-5~---|
|------|


x = ghost note
~ = let ring
Comments