Kashmir - Rocket Brothers Chords & Tabs

 

Rocket Brothers Chords & Tabs

Kashmir Chords & Tabs

Version: 1 Type: Tab 1 rating
1 star 2 stars 3 stars 4 stars 5 stars
comments

Rocket Brothers Tab

   
ROCKET BROTHERS 
by salem 

Capo in 2.  

INTRO/OUTRO 

e----2-2-2-2-2-2-2-2-2-2-2-2-2-2-2-2-2-2--2--2--2--2 -g- --2--2--2--2 -g- 
h---2-2-3-3-5-5-7-7-9-9-3-3-5-5-7-7-9-9-10-10-12-12- -e- 14-14-14-14- -e- 
g--------------------------------------------------- -n- ------------ -n- 
d--------------------------------------------------- -t- ------------ -t- 
a--------------------------------------------------- -a- ------------ -a- 
e--------------------------------------------------- -g- ------------ -g- 
                                                          I miss you so much   
VERS 1 
(can play double strokes) 

    Dmaj7       A/c#        F#          F#m         Hm          Dmaj7 
e-----2--2--2--2--2--2--2--2--2--2--2--2--2--2--2--2--2--2--2--2--2--2--2--2 
h---14-14-14-14-14-14-14-14-14-14-14-14-14-14-14-14-15-15-15-15-14-14-14-14- 
g--------------------------------------------------------------------------- 
d--------------------------------------------------------------------------- 
a--------------------------------------------------------------------------- 
e--------------------------------------------------------------------------- 
  ...boy... 

    A     E     E7          C#m         A           D     Dmaj7 Hm 
e-----2--2--2--2--2--2--2--2--2--2--2--2--2--2--2--2--2--2--2--2--2--2--2--2 
h---14-14-12-12-15-15-15-15-14-14-14-14-14-14-14-14-15-15-14-14-12-12-12-12- 
g--------------------------------------------------------------------------- 
d--------------------------------------------------------------------------- 
a--------------------------------------------------------------------------- 
e--------------------------------------------------------------------------- 
  ...ends... I owe you so much time... 

bridge 1 

    G                       E7 
e---3--3--3--3--3--3--3--3--4--4--4--4--4--4--4--4--   
h---3--3--3--3--3--3--3--3--3--3--3--3--3--3--3--3-- 
g---4--4--4--4--4--4--4--4--4--4--4--4--4--4--4--4-- 
d---5--5--5--5--5--5--5--5--2--2--2--2--2--2--2--2-- 
a---5--5--5--5--5--5--5--5-------------------------- 
e--------------------------------------------------- 
   But now it´s coming back to you... 
[ Tab from: http://www.guitartabs.cc/tabs/k/kashmir/rocket_brothers_tab.html ]
Chorus 
                                          1. + bro2     2. + gentag omk. 
    C#m   Dsus2   A    Hm    C#m   Dsus2    A    E   Em   F#m  E   E7 
e---4-----5-------5----2-----4-----5-----  -5----4---3-  -2----4---4- 
h---5-----5-------2----3-----5-----5-----  -2----5---5-  -2----5---3- 
g---6-----7-------2----4-----6-----7-----  -2----4---4-  -2----4---4- 
d---6-----7-------2----4-----6-----7-----  -2----2---2-  -4----2---2- 
a---4-----5-------2----2-----4-----5-----  -2----2---2-  -4----2---2- 
e-----------------5----------------------  -5----------  -2---------- 
   Rocket brothers crack and burst... 

BRO 2 
                                         * 
Dmaj7     A        Dmaj7      A       Dmaj7    A 
e---5---------5--------5----------5---- --5--------5-- 
h---2---------2--------2----------2---- --2--------2-- 
g---2---------2--------2----------2---- --2--------2-- 
d---4---------2--------4----------2---- --4--------2-- 
a---5---------4--------5----------4---- --5--------4-- 
e-------------5-------------------5---- -----------5-- 
   Now you´ve got someone to protect... 

VERS 2 

    Dmaj7       A/c#        F#          F#m         Hm          Dmaj7 
e---------------------------2-----------2-----------2-----------2----------- 
h---2-----------2-----------2-----------2-----------3-----------2----------- 
g---2-----------2-----------3-----------2-----------4-----------2----------- 
d---4-----------2-----------4-----------4-----------4-----------4----------- 
a---5-----------4-----------4-----------4-----------2-----------5----------- 
e---------------------------2-----------2----------------------------------- 
  ...boy... 

    A     E     E7          C#m         A           D     Dmaj7  Hm 
e---5-----4-----4-----------4-----------5-----------2-----2------2----------- 
h---2-----5-----3-----------5-----------2-----------3-----2------3----------- 
g---2-----4-----4-----------6-----------2-----------2-----2------4----------- 
d---2-----2-----2-----------6-----------2-----------4-----4------4----------- 
a---4-----2-----2-----------4-----------4-----------5-----5------2----------- 
e---5-----------------------------------5------------------------------------ 
  ...find... But now that you´ve made way... 





Comments