Kashmir - Mom In Love Daddy In Space Chords & Tabs

 

Mom In Love Daddy In Space Chords & Tabs

Kashmir Chords & Tabs

Version: 1 Type: Bass Tab 0 ratings
1 star 2 stars 3 stars 4 stars 5 stars
comments

Mom In Love Daddy In Space Bass Tab

   
Artist: Kashmir
Song: Mom in love, daddy in space
Album: The good life
Tabbed by: youk_air (yorcompany@msn.com)

Tuning: Dropped D (D A D G)

verse 1:
G|----------------|--|--|--|----------------|--|--|----------------|
D|----------------|--|--|--|----------------|--|--|----------------|
A|----------------|--|--|--|----------------|--|--|----7-----------|
D|14-\-7----------|--|--|--|10-\-3----------|--|--|6---------------|

G|----------------|--|----------------|--|
D|----------------|--|----------------|--|
A|----------------|--|5\--------------|--|
D|14-\-7----------|--|----2-----------|--|

G|----------------|--|----------------|----------------|
D|----------------|--|----------------|----------------|
A|3---------------|--|5---------------|----7-----------|
D|----3-----------|--|----5-----------|6---------------|

G|----------------|--|----------------|--|
D|----------------|--|----------------|--|
A|----------------|--|5\--------------|--|
D|14-\-7----------|--|----2-----------|--|

G|----------------|--|----------------|----------------||
D|----------------|--|----------------|----------------||
A|3---------------|--|7~~~~~~~~~~~~~~~|7~~~~~~~~~~~~~~\||
D|----3-----------|--|----------------|----------------||

chorus:
G|----------------|----------------|----------------|----------------|
D|----------------|----------------|----------------|----------------|
A|----------------|----------------|5-5-5-5-5-5-5-5-|--------7-7-7-7\|
D|7-7-7-7-7-7-7-7-|2-2-2-2-2-2-2-2-|----------------|7-7-7-7---------|

G|----------------|----------------|----------------|----------------||
D|----------------|----------------|----------------|4(4)4(4)--------||
A|----------------|----------------|5-5-5-5-5-5-5-5-|--------7(7)7(7)||
D|7-7-7-7-7-7-7-7-|2-2-2-2-2-2-2-2-|----------------|----------------||

after chorus:
G|----------------|----------------||
D|----------------|----------------||
A|----------------|----------------||
D|3-3-3-3-3-3-3-3-|3-3-3/5-5-5-----||
[ Tab from: http://www.guitartabs.cc/tabs/k/kashmir/mom_in_love_daddy_in_space_btab.html ]
verse 2:
G|----------------|----------------|----------------|----------------|
D|----------------|----------------|----------------|----------------|
A|----------------|6---------------|5-5-------------|3---------------|
D|14-\-7----------|----9-----------|----2-2---------|----7-----------|

G|----------------|----------------|----------------|----------------|
D|----------------|----------------|----------------|----------------|
A|3-3-------------|5\--------------|5-5-------------|----7-7---------|
D|----3-3---------|----0-----------|----5-5---------|6-6-------------|

G|----------------|----------------|----------------|----------------|
D|----------------|----------------|----------------|----------------|
A|----------------|6---------------|5\--------------|3---------------|
D|14-\-7----------|----9-----------|----2-2---------|----7-----------|

G|----------------|----------------|----------------|----------------||
D|----------------|----------------|----------------|----------------||
A|3-3-------------|5\--------------|7~~~~~~~~~~~~~~\|----------------||
D|----3-3---------|----0-----------|----------------|2~~~~~~~~~~~~~~~||

chorus + after chorus

2nd after chorus:
G|----------------|----------------|----------------|
D|----------------|----------------|----------------|
A|----------------|----------------|----------------|
D|7-------7-6-5-3-|--3-3-3-3-3-3-3-|3-3-3/5-5-5-----|

G|----------------|----------------|----------------||
D|--------7-6-5-3-|----------------|----------------||
A|------5---------|----------------|----------------||
D|7---------------|--3-3-3-3-3-3-3-|3-3-3/5-5-5-----||

chorus

ending:
G|----------------|----------------|----------------|----------------|
D|----------------|----------------|----------------|----------------|
A|5-5-5-5-5-5-5-5-|5-5-5-5---------|----------------|----------------| (x2)
D|----------------|--------2-2-2-2-|4-4-4-4-4-4-4-4-|7-7-7-7-7-7-7-7-|

G|----------------|----------------||
D|----------------|----------------||
A|----------------|----------------||
D|0-0-0-0-0-0-0-0-|0-0-0-0-2-2-----||
Comments