Kashmir - Miss You Chords & Tabs

 

Miss You Chords & Tabs

Kashmir Chords & Tabs

Version: 1 Type: Chords 0 ratings
1 star 2 stars 3 stars 4 stars 5 stars
comments

Miss You Chords

   
Intro x2
e-----------------------------------------------------------------------|
B-----------------------------------------------------------------------|
G-12-12-12-12-12-11-11-11-11-11-12-12-12-12-12-09-09-09-09-09-----------|
D-----------------------------------------------------------------------|
A-10-10-10-10-10-09-09-09-09-09-10-10-10-10-10-07-07-07-07-07-----------|
E-----------------------------------------------------------------------|

e----------------------------------------------------------------|
B----------------------------------------------------------------|
G-11-11-11-11-11-11-11-11-11-11-11-11-11-07-07-07-07-07----------| 
D----------------------------------------------------------------| 
A-09-09-09-09-09-09-09-09-09-09-09-09-09-05-05-05-05-05----------|
E----------------------------------------------------------------|

Em
  There's a shark deep down under
Em
  I try to call her name
Em
  But the dark waters between us
Em
  Makes me call in vain

    Cadd9          Em              Cadd9          D
I'm surfing on the surface with my fingers in the water

Em
  But she seems to have lost her 
Em  
  Interest in me

D              Cadd9    G
  I miss you all the time
D                    Cadd9 G
  Though you sit next to me
Am7                    G
  I hope you feel just fine
  Cadd9            G
  Wherever you may be
  Cadd9              Em
  Whatever's in your way

                   Em
Whatever's in your way

Em
  Among the few indulgent sailors
Em
  I am the patient one
Em
  You're the muse so involved with
Em
  The fingers in your hair

D              Cadd9    G
  I miss you all the time		D*:
D                    Cadd9 G		
  Though you sit next to me		E-0
Am7                    G		B-2
  I hope you feel just fine		G-3
  Cadd9            G			D-0
  Wherever you may be			A-0
  Cadd9              D    D*		E-0
  Whatever's in your wa--ay  yea
[ Tab from: http://www.guitartabs.cc/tabs/k/kashmir/miss_you_crd.html ]
Bridge x2
e-----------------------------------------------------------------------|
B-----------------------------------------------------------------------|
G-12-12-12-12-12-11-11-11-11-11-12-12-12-12-12-09-09-09-09-09-----------|
D-----------------------------------------------------------------------|
A-10-10-10-10-10-09-09-09-09-09-10-10-10-10-10-07-07-07-07-07-----------|
E-----------------------------------------------------------------------|

e----------------------------------------------------------------|
B----------------------------------------------------------------|
G-11-11-11-11-11-11-11-11-11-11-11-11-11-07-07-07-07-07----------| 
D----------------------------------------------------------------| 
A-09-09-09-09-09-09-09-09-09-09-09-09-09-05-05-05-05-05----------|
E----------------------------------------------------------------|


Cadd9        Em
  I pray for you
Cadd9        Em
  For your return
Cadd9       G    Cadd9 G Cadd9  D---(Stroke quickly up and down)
  In me you will for---ever     burn

               Cadd9    G
  I miss you all the time
D                    Cadd9 G
  Though you sit next to me
Am7                    G
  I hope you feel just fine
  Cadd9            G
  Wherever you may be
  Cadd9              G     
  Whatever's in your way
  Cadd9         D             D*
  Cause I can't seem to reach you

Minisolo
e-----7-------7-------7-------7----|
B---8-8-8-7-7-7-8-8-8-7-7-7-|
G-9-9-9-7-7-7-9-9-9-7-7-7--|

e----5-------5-------5-------5---|
B-5-5-5-5-5-5-5-5-5-5-5-5|
G-5-5-5-5-5-5-5-5-5-5-5-5-|

e-----7-------7-------7-------7--14|
B---8-8-8-7-7-7-8-8-8-7-----|
G-9-9-9-7-7-7-9-9-9-7-7----|


e------------------------------------------------|
B------------------------------------------------|
G-11-11-11-1111-11-11-11-11-11-11-11------------|
D------------------------------------------------|
A-09-09-09-0909-09-09-09-09-0909-09------------|
E------------------------------------------------|

Outro x2
e-----------------------------------------------------------------------|
B-----------------------------------------------------------------------|
G-12-12-12-12-12-11-11-11-11-11-12-12-12-12-12-09-09-09-09-09-----------|
D-----------------------------------------------------------------------|
A-10-10-10-10-10-09-09-09-09-09-10-10-10-10-10-07-07-07-07-07-----------|
E-----------------------------------------------------------------------|

e----------------------------------------------------------------|
B----------------------------------------------------------------|
G-11-11-11-11-11-11-11-11-11-11-11-11-11-07-07-07-07-07----------| 
D----------------------------------------------------------------| 
A-09-09-09-09-09-09-09-09-09-09-09-09-09-05-05-05-05-05----------|
E----------------------------------------------------------------|
Comments