Kashmir - Make It Grand Chords & Tabs

 

Make It Grand Chords & Tabs

Kashmir Chords & Tabs

Version: 1 Type: Bass Tab 0 ratings
1 star 2 stars 3 stars 4 stars 5 stars
comments

Make It Grand Bass Tab

Artist: Kashmir
Song: Make it grand
Album: The good life
Bass by. Mads Tunebjerg
Tabbed by: Ertner.

One of my favorite kashmir songs.


Verse:
G------------------------------------------------------------------------
D------------------------------------------------------------------------ X2
A-------------------5--5-5-5-2-2-2-4-4-----------------------------------
E-2--2-2-2-0--0-0-0------------------------------------------------------

Chorus:
G|-----------------------------------------------------------------------
D|-----------------------------------------------------------------------
A|---------------4-4-4-4-4-4-4-4-----------------2-2-2-2-2-2-2-2-6-6-6---
E|-2-2-2-2-2-2-2-----------------4-4-4-4-4-4-4-4-------------------------
[ Tab from: http://www.guitartabs.cc/tabs/k/kashmir/make_it_grand_btab.html ]
G|-----------------------------------------------------------------------
D|-----------------------------------------------------------------------
A|-6-6-6-6-6-------------------------------------------------------------
E|-----------6-6-6-6-6-6-6-6-4-4-4-4-4-4-4-4-7---------------------------

Bridge:
G|-----------------------------------------------------------------------
D|-4--4-4-4-2--2-2-2-0--0-0-0--------------------------------------------
A|----------------------------4--4-4-4-2--2-2-2-0--0-0-0-----------------
E|-------------------------------------------------------4-4-4-4-3--3-3-3

G|-----------------------------------------------------------------------
D|-4--4-4-4-2--2-2-2-0--0-0-0--------------------------------------------
A|----------------------------4--4-4-4-2--2-2-2-0--0-0-0----------4------
E|-------------------------------------------------------4--4-4-4--------
T
he song goes like this:
Verse
Chorus
Verse
Verse
Verse
Chorus
Bridge
Chorus
Chorus
Comments