Kashmir - Kalifornia Chords & Tabs

 

Kalifornia Chords & Tabs

Kashmir Chords & Tabs

Version: 2 Type: Tab

Kalifornia Tab

   
    ____________________
   / Kashmir           /  I think this song is about the Americanization of the
  / Kalifornia        /  world and how we're consumed by it's ideals. We've
 / No Balance Palace /  always been aware of that it was sneaking up on us, but
/___________________/  we were never strong enough to resist it after all.


The verses (and the intro) are constructed with shifts between Em and A with a
fill between every shift. All measures go in 4/4 except for those indicated differently:

                     5/4
  | Em | Em | Asus4 | A |

        3/4          5/4
  | Em | Em | Asus4 | A |





Intro:
This is my best bid on the keyboard transcribed for guitar:

 4/4  5/4         4/4       4/4       4/4       5/4
 A    A           Em        Em        A         A
--7--|-----------|-7-------|---------|---------|---------------|
--0--|-----------|-0-------|---------|-5-------|---------------|
-----|-----7-6-7-|-9-------|-----7-4-|-6-------|---------7-6-7-|
-----|-------7-5-|-9-------|-----5-5-|-0-------|---------9-7-5-|
-----|-----------|-7-------|---------|-4-------|---------------|
-----|-----------|-0-------|---------|-5-------|-7-5-----7-5-3-|

 4/4        3/4       4/4       5/4
 Em         Em        A         A
|----------|---------|---------|-----------------------------|
|----------|---------|---------|-----------------------------|
|-9--------|-------7-|-6-------|-----------------------------|
|-9--------|-------9-|-7-------|---------4-------4-------4---|
|-7--------|---------|-0-------|-------5---5---5---5---5---5-|
|-0------9-|-10----0-|---------|-----7-------5-------3-------|





Verses:
Strum the chords and play the fills listed below in the verse pattern:


                Em                Asus4                A
           0 2 5 4 x x         5 5 2 2 x x        5 4 2 2 x x



              4/4 4/4                             5/4 4/4         3/4 4/4
1.             Em Asus4     2., 4.                  A Em    3.     Em Asus4
-----------------|-------   -------------------------|---   ---------|-------
-----------------|-------   -------------------------|---   ---------|-------
-----------------|-------   -------------------------|---   ---------|-------
-----4-------4---|-----2-   -----4-------4-------4---|---   -----4---|-----2-
---5---5---5---5-|---5---   ---5---5---5---5---5---5-|---   ---5---5-|---5---
-7-------5-------|-5-----   -7-------5-------3-------|---   -7-------|-5-----


2nd Guitar's fill:
 3/4
  Em6      Em7
|---------------------------|
|---------------------------|
|-6-----6--7-----7----------|
|-5-----5--5-----5------4---|
|-7-----7--7-----7----5---5-|
|-0-----0--0-----0--7-------|





Chorus:
In the verse, the fourth fill in the end of the last 5/4 A-measure is cut away,
which leaves a 2/4 A-measure and the chorus starts straight on after that.


 3/4                       5/4
  1   +   2   +   3   +     1   +   2   +   3   +   4   +   5   +
  Bm    A     Bm    Em      Em
|-7-----5-----7-----0-----|-0---------------------------------------|
|-7-----5-----7-----0-----|-0---------------------------------------|
|-7-----6-----7-----0-----|-0---------------------------------------|
|-9-----7-----9-----2-----|-2---------------------------------------|
|-9-----7-----9-----2-----|-2---------------------------------------|
|-7-----5-----7-----0-----|-0---------------------------------------|
  Rest- less, rest- less_____


 3/4                       5/4
  1   +   2   +   3   +     1   +   2   +   3   +   4   +   5   +
  Bm    A     G     F#      F#
|-7-----5-----3-----2-----|-2---------------------------------------|
|-7-----5-----3-----2-----|-2---------------------------------------|
|-7-----6-----4-----3-----|-3---------------------------------------|
|-9-----7-----5-----4-----|-4---------------------------------------|
|-9-----7-----5-----4-----|-4---------------------------------------|
|-7-----5-----3-----2-----|-2---------------------------------------|
  Wind- swept road___


 3/4                       5/4
  1   +   2   +   3   +     1   +   2   +   3   +   4   +   5   +
  Bm    A     G     Em      Em
|-7-----5-----3-----0-----|-0---------------------------------------|
|-7-----5-----3-----0-----|-0---------------------------------------|
|-7-----6-----4-----0-----|-0---------------------------------------|
|-9-----7-----5-----2-----|-2---------------------------------------|
|-9-----7-----5-----2-----|-2---------------------------------------|
|-7-----5-----3-----0-----|-0---------------------------------------|
  Take  me    some  place____

[ Tab from: http://www.guitartabs.cc/tabs/k/kashmir/kalifornia_tab_ver_2.html ]
 5/4                                      5/4
  1   +   2   +   3   +   4   +   5   +    1   +   2   +   3   +   4   +   5   +
  Bm      A                                A
|-7-------5------------------------------|-----------------------------------------|
|-7-------5------------------------------|-----------------------------------------|
|-7-------6------------------------------|-----------------------------------------|
|-9-------7------------------------------|---------------------4-------4-------4---|
|-9-------7------------------------------|-------------------5---5---5---5---5---5-|
|-7-------5------------------------------|-----------------7-------5-------3-------|
  Un-     fold                                             Ka-     li-     for-



(2nd time, before the bridge)
 5/4                                       4/4
 1st Guitar
          A                                 Aadd9
|-----------------------------------------|---------------------------------|
|-----------------------------------------|---------------------------------|
|-----------------------------------------|---------------------------------|
|---------7-7-7-7-7-7-7-7-7-7-7-7-7-7-7-7-|-9-9-9-9-9-9-9-9-9-9-9-9-9-9-9-9-|
|-----------------------------------------|---------------------------------|
|---------5-5-5-5-5-5-5-5-5-5-5-5-5-5-5-5-|-5-5-5-5-5-5-5-5-5-5-5-5-5-5-5-5-|
| Un-     fold
|
|2nd Guitar
|-----------------------------------------|---------------------------------|
|-----------------------------------------|---------------------------------|
|---------6-6-6-6-6-6-6-6-6-6-6-6-6-6-6-6-|-6-6-6-6-6-6-6-6-6-6-6-6-6-6-6-6-|
|-----------------------------------------|---------------------------------|
|---------4-4-4-4-4-4-4-4-4-4-4-4-4-4-4-4-|-4-4-4-4-4-4-4-4-4-4-4-4-4-4-4-4-|
|-----------------------------------------|---------------------------------|


  Asus4add9                         Aadd9
|---------------------------------|-----------------------------------------|
|---------------------------------|-----------------------------------------|
|---------------------------------|-----------------14-14-14-14-14-14-14s16-|
|-9-9-9-9-9-9-9-9-9-9-9-9-9-9-9-9-|-9-9-9-9-9-9-9-9-------------------------|
|---------------------------------|-----------------12-12-12-12-12-12-12s14-|
|-5-5-5-5-5-5-5-5-5-5-5-5-5-5-5-5-|-5-5-5-5-5-5-5-5-------------------------|
|
|---------------------------------|-----------------------------------------|
|---------------------------------|-----------------------------------------|
|-7-7-7-7-7-7-7-7-7-7-7-7-7-7-7-7-|-9-9-9-9-9-9-9-9--9--9--9--9--9--9--9--9-|
|---------------------------------|-----------------------------------------|
|-5-5-5-5-5-5-5-5-5-5-5-5-5-5-5-5-|-7-7-7-7-7-7-7-7--7--7--7--7--7--7--7--7-|
|---------------------------------|-----------------------------------------|





Bridge:
 4/4
  Bm
|-------------------------------------------------|
|-------------------------------------------------|
|-11-11-11-11-11-11-11-11-11-11-11-11-11-11-11-11-|
|-------------------------------------------------|
|--9--9--9--9--9--9--9--9--9--9--9--9--9--9--9--9-|
|-------------------------------------------------|
|
|-------------------------------------------------|
|-------------------------------------------------|
|--7--7--7--7--7--7--7--7--7--7--7--7--7--7--7--7-|
|-------------------------------------------------|
|--5--5--5--5--5--5--5--5--5--5--5--5--5--5--5--5-|
|-------------------------------------------------|


 5/4
  F#                      Bm          Bm/a        Bm/f#
|-------------------------------------------------------------|
|-------------------------------------------------------------|
|-11-11-11-11-11-11-11-11-16-16-16-16-14-14-14-14-11-11-11-11-|
|-------------------------------------------------------------|
|--9--9--9--9--9--9--9--9-14-14-14-14-12-12-12-12--9--9--9--9-|
|-------------------------------------------------------------|
|
|-------------------------------------------------------------|
|-------------------------------------------------------------|
|--6--6--6--6--6--6--6--6--7--7--7--7--7--7--7--7--7--7--7--7-|
|-------------------------------------------------------------|
|--4--4--4--4--4--4--4--4--5--5--5--5--5--5--5--5--5--5--5--5-|
|-------------------------------------------------------------|


 4/4                               4/4
  A                                 F#7                     Asus4
|---------------------------------|------------------------------------------------|
|---------------------------------|------------------------------------------------|
|-9-9-9-9-9-9-9-9-9-9-9-9-9-9-9-9-|-9-11-11-11-11-11-11-11-14-14-14-14-14-14-14-14-|
|---------------------------------|------------------------------------------------|
|-7-7-7-7-7-7-7-7-7-7-7-7-7-7-7-7-|-7--9--9--9--9--9--9--9-12-12-12-12-12-12-12-12-|
|---------------------------------|------------------------------------------------|
|
|---------------------------------|------------------------------------------------|
|---------------------------------|------------------------------------------------|
|-6-6-6-6-6-6-6-6-6-6-6-6-6-6-6-9-|-9-11--9--9--9--9--9--9--7--7--7--7--7--7--7--7-|
|---------------------------------|------------------------------------------------|
|-4-4-4-4-4-4-4-4-4-4-4-4-4-4-4-7-|-7--9--7--7--7--7--7--7--5--5--5--5--5--5--5--5-|
|---------------------------------|------------------------------------------------|

...end on A F#