Kashmir - In The Sand Chords & Tabs

 

In The Sand Chords & Tabs

Kashmir Chords & Tabs

Version: 1 Type: Bass Tab 0 ratings
1 star 2 stars 3 stars 4 stars 5 stars
comments

In The Sand Bass Tab

-----------------------------------------------------------------------------
			     In the Sand - Kashmir
-----------------------------------------------------------------------------

Tabbed By: Casper Nørgaard
e-mail: casper_noergaard@hotmail.com

Tuning: Standard tuning

Bass joins at about 2:08 into the song
[ Tab from: http://www.guitartabs.cc/tabs/k/kashmir/in_the_sand_btab.html ]
G|------|---------------------------------------------------------------
D|-14\--|-5--5-5--5--5-5--9--9-9--77777777--5--5-5--5--4--2-------------
A|------|----------------------------------------------------5--5---5-5-
E|------|---------------------------------------------------------------

G|-----|------------------------------------------------------------------
D|--/7-|-------------------------------------------------------5--3-------
A|-----|-33333333-33333333-55555555-55555555-33333333-11111111--------3-5-
E|-----|------------------------------------------------------------------

G|------------
D|-5--3-------
A|--------3-5-
E|------------
Comments