Kashmir - Graceland Chords & Tabs

 

Graceland Chords & Tabs

Kashmir Chords & Tabs

Version: 1 Type: Tab 0 ratings
1 star 2 stars 3 stars 4 stars 5 stars
comments

Graceland Tab

   
                                       KASHMIR
                                      Graceland


Det første stykke er uden guitar.


Omkvæd: riff 1
e|--3-----3-----3-----3-----3-----3---3-----3-----3---3-----3-----
H|----3-----3-----3----3-----3-----3---3-----3-----3---3-----3----
G|------5-----5---------4-----4---------5-----5---------4-----4---
D|----------------------------------------------------------------
A|----------------------------------------------------------------
E|----------------------------------------------------------------
 Forty thousand million...

e|---3---3-----3------3---3-----3-----3--| 
H|-----3---3-----3-----3---3-----3-----3-| 
G|-----------5-----5---------0-----0-----| 
D|---------------------------------------|
A|---------------------------------------|
E|---------------------------------------|

  riff 2
e|--3-----3-----3-----2-----3----3------|
H|-----3-----3-----3-----3-----3-----2--|
G|--------4-----4------2---2-----2------|
D|--------------------------------------|
A|--------------------------------------|
E|--------------------------------------|


[ Tab from: http://www.guitartabs.cc/tabs/k/kashmir/graceland_tab.html ]
vers:
e|---3-----3-----3----3-----3-----3---3-----3-----3-----2-----3----
H|-----3-----3-----3----3-----3-----3---3-----3-----3-----3-----3--
G|-------4-----4----------5-----5---------4-----4-------2---2------
D|-----------------------------------------------------------------
A|-----------------------------------------------------------------
E|-----------------------------------------------------------------


e|-----3-----3-----3-----3---3-----3-----3---3-----3-----3-----2--------3-----5--|
H|-------2-----3-----3-----3---3-----3-----3---3-----3-----3--------3-----3------|
G|---2-----------0-----0---------5-----5---------0-----0-------2------2-----2-2--|
D|-------------------------------------------------------------------------------|
A|-------------------------------------------------------------------------------|
E|-------------------------------------------------------------------------------|


Omkvæd:
e|---3-----3-----3---3-----3-----3---3-----3-----3---3-----3-------
H|-----3-----3-----3---3-----3-----3---3-----3-----3---3-----3-----
G|--------5-----5---------4-----4---------5-----5---------4-----4--
D|-----------------------------------------------------------------
A|-----------------------------------------------------------------
E|-----------------------------------------------------------------

e|---3---3-----3-----3---3-----3-----3---3-----3-----3-----2-------3-----2----|
H|-----3---3-----3-----3---3-----3-----3---3-----3-----3------3------3-----2--|
G|------------5-----5---------0-----0---------4-----4-------2---2------2------|
D|----------------------------------------------------------------------------|
A|----------------------------------------------------------------------------|
E|----------------------------------------------------------------------------|


Comments