Kasey Chambers - True Colours Chords & Tabs

 

True Colours Chords & Tabs

Kasey Chambers Chords & Tabs

Version: 2 Type: Tab 0 ratings
1 star 2 stars 3 stars 4 stars 5 stars
comments

True Colours Tab

   
-------------------------------------------------------------------------------
			     TRUE COLOURS - Kasey Chambers
-------------------------------------------------------------------------------
Tabbed by: <>
Email: brad_unabia@hotmail.com

Tuning: Standard
[ Tab from: http://www.guitartabs.cc/tabs/k/kasey_chambers/true_colours_tab_ver_2.html ]
e|---3-----------3---3-----------3---3----------------------------------------------|
B|-------0---1-----------0---1------------------------------------------------------|
G|---------------------------------------2------------------------------------------|
D|----------------------------------------------------------------------------------|
A|---0-----------0---2-----------2---3----------------------------------------------|
E|---------------------------------------1------------------------------------------|

| /  slide up
| \  slide down
| h  hammer-on
| p  pull-off
| ~  vibrato
| +  harmonic
| x  Mute note
===============================================================================
This tab is really easy to learn. Please rate this because it is my first tab.
Comments