Kasabian - Reason Is Treason Chords & Tabs

 

Reason Is Treason Chords & Tabs

Kasabian Chords & Tabs

Version: 2 Type: Tab 0 ratings
1 star 2 stars 3 stars 4 stars 5 stars
comments

Reason Is Treason Tab

   
Artist: Kasabian
Song: Reason Is Treason
Album: Kasabian
Guitarist: Serge .P 
Tabbed By James Morris
Date: 29:01:05

This song basically repeats itself constantly throughout the song. The chorus and the
verse are played the same but the chorus has a slight distortion.

~~ - let ring

Intro (00.00 - 00.51)

E|---------------------------------|
B|---------------------------------|
G|-9-9-9-9-9-9-9-9-9-9-9-9-9-9-9-9-| (repeat until 00.48)
D|-9-9-9-9-9-9-9-9-9-9-9-9-9-9-9-9-|
A|-7-7-7-7-7-7-7-7-7-7-7-7-7-7-7-7-|
E|-0-0-0-0-0-0-0-0-0-0-0-0-0-0-0-0-|

(00.48 - 00.51) 

E|---------------------------------|
B|---------------------------------|
G|-4-4-4-4-4-4-4-4-7-7-7-7-8-8-8-8-|
D|-4-4-4-4-4-4-4-4-7-7-7-7-8-8-8-8-|
A|-2-2-2-2-2-2-2-2-5-5-5-5-6-6-6-6-|
E|---------------------------------|

Chorus (00.51 - 01.12)_ _ _ _ _ _ _ _ _ _ _ _ _  
                                               |
E|---------------------------------|           |
B|---------------------------------|           |
G|-9-9-9-9-9-9-9-9-9-9-9-9-9-9-9-9-| x2        |
D|-9-9-9-9-9-9-9-9-9-9-9-9-9-9-9-9-|           |
A|-7-7-7-7-7-7-7-7-7-7-7-7-7-7-7-7-|           |
E|-0-0-0-0-0-0-0-0-0-0-0-0-0-0-0-0-|           |
                                               |
E|---------------------------------|           |     (Repeat this whole
B|---------------------------------|           |      cycle twice)
G|-4-4-4-4-4-4-4-4-7-7-7-7-8-8-8-8-|           |
D|-4-4-4-4-4-4-4-4-7-7-7-7-8-8-8-8-|           |
A|-2-2-2-2-2-2-2-2-5-5-5-5-6-6-6-6-|           |
E|-2-2-2-2-2-2-2-2-5-5-5-5-6-6-6-6-|           |
                      _ _ _ _ _ _ _ _ _ _ _ _ _|
                                             

Bridge (01.12 - 01.16)

E|---------------------------------|
B|---------------------------------|
G|-9-9-9-9-9-9-9-9-9-9-9-9-9-9-9-9-| 
D|-9-9-9-9-9-9-9-9-9-9-9-9-9-9-9-9-|
A|-7-7-7-7-7-7-7-7-7-7-7-7-7-7-7-7-|
E|-0-0-0-0-0-0-0-0-0-0-0-0-0-0-0-0-|


Interlude (02.14 - 02.28)

E|---------------------------------------------------|
B|---------------------------------------------------|
G|---------------------------------------------------|
D|---------------------------------------------------|
A|-7-9-7~-----------3~-----2~---------5---6----------|
E|----------------------------------------------0~~--|

Build Up (02.28 - 02.41) Strange Effect
  
 PM ----------------------------------------------
E|-------------------------------------------------|
B|-------------------------------------------------|
G|-------------------------------------------------|
D|-------------------------------------------------|
A|-7-7-7-7-7-7-7-7-7-7-7-7-7-7-7-7-7-7-7-7-7-7-7-7-|
E|-------------------------------------------------|
[ Tab from: http://www.guitartabs.cc/tabs/k/kasabian/reason_is_treason_tab_ver_2.html ]
(02.41 - 03.22) Quiet

E|---------------------------------|
B|---------------------------------|
G|-9-9-9-9-9-9-9-9-9-9-9-9-9-9-9-9-| 
D|-9-9-9-9-9-9-9-9-9-9-9-9-9-9-9-9-| (This comes in at 02.41. The
A|-7-7-7-7-7-7-7-7-7-7-7-7-7-7-7-7-| strange effect still plays)
E|-0-0-0-0-0-0-0-0-0-0-0-0-0-0-0-0-|

The bass enters at (02.53)

G|---------------------------------------|
D|---------------------------------------|
A|-12-12-12-12-10-10-9-9-7-7-7-7-7-7-7-7-|
E|---------------------------------------|

Guitar (03.22)

E|---------------------------------|
B|---------------------------------|
G|-4-4-4-4-4-4-4-4-7-7-7-7-8-8-8-8-|
D|-4-4-4-4-4-4-4-4-7-7-7-7-8-8-8-8-|
A|-2-2-2-2-2-2-2-2-5-5-5-5-6-6-6-6-|
E|---------------------------------|

Chorus (03.26)

E|---------------------------------|
B|---------------------------------|
G|-9-9-9-9-9-9-9-9-9-9-9-9-9-9-9-9-|  x2
D|-9-9-9-9-9-9-9-9-9-9-9-9-9-9-9-9-|
A|-7-7-7-7-7-7-7-7-7-7-7-7-7-7-7-7-|
E|-0-0-0-0-0-0-0-0-0-0-0-0-0-0-0-0-|

E|---------------------------------|
B|---------------------------------|
G|-4-4-4-4-4-4-4-4-7-7-7-7-8-8-8-8-|
D|-4-4-4-4-4-4-4-4-7-7-7-7-8-8-8-8-|
A|-2-2-2-2-2-2-2-2-5-5-5-5-6-6-6-6-|
E|-2-2-2-2-2-2-2-2-5-5-5-5-6-6-6-6-|


E|---------------------------------|
B|---------------------------------|
G|-9-9-9-9-9-9-9-9-9-9-9-9-9-9-9-9-|  x2
D|-9-9-9-9-9-9-9-9-9-9-9-9-9-9-9-9-|
A|-7-7-7-7-7-7-7-7-7-7-7-7-7-7-7-7-|
E|-0-0-0-0-0-0-0-0-0-0-0-0-0-0-0-0-|

E|---------------------------------|
B|---------------------------------|
G|-4-4-4-4-4-4-4-4-2-2-2-2-8-8-8-8-|
D|-4-4-4-4-4-4-4-4-2-2-2-2-8-8-8-8-|
A|-2-2-2-2-2-2-2-2-0-0-0-0-6-6-6-6-|
E|-2-2-2-2-2-2-2-2-0-0-0-0-6-6-6-6-|

                      _ _ _ _ _ _ _ _ _ _ _ _ _  
                                               |
E|---------------------------------|           |
B|---------------------------------|           |
G|-9-9-9-9-9-9-9-9-9-9-9-9-9-9-9-9-| x2        |
D|-9-9-9-9-9-9-9-9-9-9-9-9-9-9-9-9-|           |
A|-7-7-7-7-7-7-7-7-7-7-7-7-7-7-7-7-|           |
E|-0-0-0-0-0-0-0-0-0-0-0-0-0-0-0-0-|           |
                                               |
E|---------------------------------|           |     (Repeat this whole
B|---------------------------------|           |      cycle four times)
G|-4-4-4-4-4-4-4-4-7-7-7-7-8-8-8-8-|           |
D|-4-4-4-4-4-4-4-4-7-7-7-7-8-8-8-8-|           |
A|-2-2-2-2-2-2-2-2-5-5-5-5-6-6-6-6-|           |
E|-2-2-2-2-2-2-2-2-5-5-5-5-6-6-6-6-|           |
                      _ _ _ _ _ _ _ _ _ _ _ _ _|

End (04.28)

E|----|
B|----|
G|-9~-|
D|-9~-|
A|-7~-|
E|-0~-|


The End. Enjoy.

Please rate and comment.
Comments