Kasabian - Foot Club Chords & Tabs

 

Foot Club Chords & Tabs

Kasabian Chords & Tabs

Version: 1 Type: Bass Tab 0 ratings
1 star 2 stars 3 stars 4 stars 5 stars
comments

Foot Club Bass Tab

Intro/Chorus
G|-----------------------------------------|
D|--------------1---1----1-----------------|
A|---3-33-3--3----3----3-------------------|
E|-----------------------------------------|

G|-----------------------------------------|
D|-----------5-3-1-3-1---------------------|
A|---3-33-3------------3-------------------|
E|-----------------------------------------|
[ Tab from: http://www.guitartabs.cc/tabs/k/kasabian/foot_club_btab.html ]
Verse
G|------------------------------------------|
D|------------------------------------------|
A|-3-3-3-3-3-3-3-3-3-3-3-3-3-3-3-3/8-8-8-8\-|
E|------------------------------------------|

Bridge
G|----8-----12-10-8-10-8----8-10-8----0-3-0-5-0-8-0-10-0-|
D|-10--------------------10--------10--------------------|
A|-------------------------------------------------------|
E|-------------------------------------------------------|

UPDATED!!!
Comments