Kasabian - Cutt Off Chords & Tabs

 

Cutt Off Chords & Tabs

Kasabian Chords & Tabs

Version: 1 Type: Tab 0 ratings
1 star 2 stars 3 stars 4 stars 5 stars
comments

Cutt Off Tab

----------------------------------------------------------------------------------------------|
Kasabian - Cutt Off
----------------------------------------------------------------------------------------------|
Tabbed by: Jimmy McIntosh
Email: sexy.resultsx@gmail.com

Tuning: EADGBe

Sick tune, most of it's synth. But theres a little riff, kind of like the one in
Radiohead - Just that is fun to play.
[ Tab from: http://www.guitartabs.cc/tabs/k/kasabian/cutt_off_tab.html ]
e|--------------------------------------------------------------------------|
B|--------------------------------------------------------------------------|
G|--555x5-888x8-777x7-101010x10------------------------------------------|
D|--555x5-888x8-777x7-101010x10------------------------------------------|
A|--333x3-666x6-555x5---8-8-8x-8------------------------------------------|
E|--------------------------------------------------------------------------|

Heres the main line from the intro, check it.

e|--------------------------------------------------------------------------|
B|--------------------------------------------------------------------------|
G|----5--------------5------------------------------------------------------|
D|-------33-4---33-4--------------------------------------------------------|
A|------------3-------------------------------------------------------------|
E|--------------------------------------------------------------------------|

Hope you all enjoy, it's as always 100% correct.
Comments