Kasabian - Club Foot Chords & Tabs

 

Club Foot Chords & Tabs

Kasabian Chords & Tabs

Version: 1 Type: Tab 0 ratings
1 star 2 stars 3 stars 4 stars 5 stars
comments

Club Foot Tab

Kasabian
Club Foot
Tabbed by Chris Webb
TUNING!!! Drop the E to a really bassy note, C I think, playing the 9th fret should make 
same note as the open A.

Key: ^^^^^^^^^^ = alternate picking

Intro

e-----------------------------------------------------------|
B-----------------------------------------------------------|
G-----------------------------------------------------------|
D-----------1---1---1---------5-3-1-3-1---------------------|
A---------3---3---3---------------------3-------------------|
C-00000----------------00000--------------------------------|

Verse (hard to hear, I know its sounds like bass, but its fun to play to the whole of a 
ya know?)

e-----------------------------------------------------------|
B-----------------------------------------------------------|
G-----------------------------------------------------------|
D-----------------------------------------------------------|
A-----------------------------------------------------------|
C-000000000000000055555555----------------------------------|

Chorus (all palm muted, also really hard to hear)
[ Tab from: http://www.guitartabs.cc/tabs/k/kasabian/club_foot_tab.html ]
e-----------------------------------------------------------|
B-----------------------------------------------------------|
G-----------------------------------------------------------|
D-----------1---1---1---------5-3-1-3-1---------------------|
A---------3---3---3---------------------3-------------------|
C-00000----------------00000--------------------------------|

Solo

e-----------------------------------------------------------|
B-----------------------------------------------------------|
G-----------------------------------------------------------|
D-------1----5-11-3-1------3-1------1----13-15-----3----5---|
A-3-1-3---------------3--------33-13--13--------------------|
C-----------------------------------------------------------|

^^^^^^^^^^^^^^^^^^
e-----------------------------------------------------------|
B-----------------------------------------------------------|
G-------------5-----8---5----5------------------------------|
D-3--5--8------------------8---5----3---1-------------------|
A--------------------------------------------3--------------|
E-----------------------------------------------------------|
 ^^^^^^^^^^^^^^^^^^^^^^^^^^^^^^^^^^^^^^^^^^^^^

Well that's it I think... please rate this tab and any comments/corrections are welcome!
Comments