Karot - God Is Dead Chords & Tabs

 

God Is Dead Chords & Tabs

Karot Chords & Tabs

Version: 1 Type: Tab 0 ratings
1 star 2 stars 3 stars 4 stars 5 stars
comments

God Is Dead Tab

   
Artist: Karot
Song: God Is Dead
Album: The Cumming Of The Rockapocalypse

Tuning - Drop D

OPENING RIFF
                                       
-|------------|------------|------------|------------|------|
-|------------|------------|------------|------------|------|
-|------------|------------|------------|------------|------|
-|-0-0-1-0----|-0-0-1-0----|-0-0-1-0----|-0-0-1-0----|-19/3-|
-|-0-0-1-0----|-0-0-1-0----|-0-0-1-0----|-0-0-1-0----|-19/3-|
-|-0-0-1-0----|-0-0-1-0----|-0-0-1-0----|-0-0-1-0----|-19/3-|

('19/3' is a descending plectrum string scratch)

VERSE RIFF 1

         "Blor!"      "Blor!"      "Blor!"       "Blor"
-|-------------|------------|------------|------------|
-|-------------|------------|------------|------------|
-|-------------|------------|------------|------------|
-|-0-1-0-------|-0-1-0------|-0-1-0------|-0-1-0------|
-|-0-1-0-------|-0-1-0------|-0-1-0------|-0-1-0------|
-|-0-1-0-------|-0-1-0------|-0-1-0------|-0-1-0------|

VERSE RIFF 2

"Rhoorr a-lodi-rhor-de-rhhorr!"

-|------------------------|
-|------------------------|
-|------------------------|
-|-0-1-0-1-4--0-1-0-1-4-3-|
-|-0-1-0-1-4--0-1-0-1-4-3-|
-|-0-1-0-1-4--0-1-0-1-4-3-|

BRIDGE RIFF 1

Play this bit satanically fast. You will probably only be able
to pull it off if you are a true Master Shred-head of Satanic
riffage.
[ Tab from: http://www.guitartabs.cc/tabs/k/karot/god_is_dead_tab.html ]
 "Rhorr...blor...rhorr-rhorr-rhorr!"
-|-----------------------------------------------------------------|
-|-----------------------------------------------------------------|
-|-5-5-5-5-5-5-5-5-7-7-7-7-7-7-7-7-5-5-5-5-5-5-5-5-8-8-8-8-8-8-8-8-|
-|-5-5-5-5-5-5-5-5-7-7-7-7-7-7-7-7-5-5-5-5-5-5-5-5-8-8-8-8-8-8-8-8-|
-|-3-3-3-3-3-3-3-3-5-5-5-5-5-5-5-5-3-3-3-3-3-3-3-3-6-6-6-6-6-6-6-6-|
-|-----------------------------------------------------------------|

BRIDGE ENDING VARITION RIFF

-|-----------------------------------------------------------------|
-|-----------------------------------------------------------------|
-|-5-5-5-5-5-5-5-5-8-8-8-8-8-8-8-8-7-7-7-7-7-7-7-7-7-7-7-7-7-7-7-7-|
-|-5-5-5-5-5-5-5-5-8-8-8-8-8-8-8-8-7-7-7-7-7-7-7-7-7-7-7-7-7-7-7-7-|
-|-3-3-3-3-3-3-3-3-6-6-6-6-6-6-6-6-5-5-5-5-5-5-5-5-5-5-5-5-5-5-5-5-|
-|-----------------------------------------------------------------|

CHORUS

"God is dead, God is dead, God is dead, GOD IS DEAD!"

-|------------------------|------------------------|
-|------------------------|------------------------|
-|------------------------|------------------------|
-|-0-1-0-1-4--0-1-0-1-4-3-|-0-1-0-1-4-0-1-0--6-6-6-|
-|-0-1-0-1-4--0-1-0-1-4-3-|-0-1-0-1-4-0-1-0--6-6-6-|
-|-0-1-0-1-4--0-1-0-1-4-3-|-0-1-0-1-4-0-1-0--6-6-6-|

SOLO

CHORUS

END EXTENDED POWER CHORD

-|-5-
-|-3-
-|-2-
-|-0-
-|-0-
-|-0-

I hope this tab inspires you to kill some more virgin goats. Blor.
Comments