Karel Marquez - Pangarap Chords & Tabs

 

Pangarap Chords & Tabs

Karel Marquez Chords & Tabs

Version: 1 Type: Tab 0 ratings
1 star 2 stars 3 stars 4 stars 5 stars
comments

Pangarap Tab

h- hammer
/- slide up


Distorted 
E|------------------------------------------------------------------|
A|---------------7-7h8----------7-8/10--8-8-------------------------|
D|-----7-7---9---------7-7---9--------------------------------------|
G|------------------------------------------------------------------|
B|------------------------------------------------------------------|
E|------------------------------------------------------------------|


[ Tab from: http://www.guitartabs.cc/tabs/k/karel_marquez/pangarap_tab.html ]
Distorted 
E|------------------------------------------------------------------|
A|---------------7-7h8----------7-8/10--8-8--7-7--------------------|
D|-----7-7---9---------7-7---9--------------------------------------|
G|------------------------------------------------------------------|
B|------------------------------------------------------------------|
E|------------------------------------------------------------------|



i hope you like this tab! well, its my second time to make a tablature... for any
comments or suggestions, just email me jinx692000@yahoo.com.... well, i want to
dedicate this to my baby... chantelle alejandro.. i love you so much baby... i
hope you like it!! T_T hi to my band...
Comments