Karas Flowers - Myself Chords & Tabs

 

Myself Chords & Tabs

Karas Flowers Chords & Tabs

Version: 1 Type: Tab 0 ratings
1 star 2 stars 3 stars 4 stars 5 stars
comments

Myself Tab

Myself
Kara's Flowers
The Fourth World
Tabbed by: Danielle Weitzman

(Standard EADGBe tuning)

Intro/Verse 1

-----0--------------------------------------------0--------| 
-----0--------------------------------------------0--------|
----------------------0------0------0-----0--------------2-| 
--------------------2------2------1-----1--------------1---| 
---2----------2---4------4------2-----2--------2-----2-----| 
-0------02\4--------------------------------0-------------| (x3)

Chorus

-00000000-----------------------------------| 
-00000000-----------------------------------|
-11111111-----------------------------------| 
-22222222----------------------------4444---| 
-22222222--66666666--77777777--4444--2222---| 
-00000000--44444444--55555555--2222---------|

-00000000-----------------------------------| 
-00000000-----------------------------------|
-11111111-----------------------------------| 
-22222222-----------------------------------| 
-22222222--66666666--77777777--44444444-----| 
-00000000--44444444--55555555--22222222-----| (x2)

Play E three times before 2nd verse

Verse 2

-----0--------------------------------------------0--------| 
-----0--------------------------------------------0--------|
----------------------0------0------0-----0--------------2-| 
--------------------2------2------1-----1--------------1---| 
---2----------2---4------4------2-----2--------2-----2-----| 
-0------02\4--------------------------------0-------------| (x3)

Chorus

-00000000-----------------------------------| 
-00000000-----------------------------------|
-11111111-----------------------------------| 
-22222222----------------------------4444---| 
-22222222--66666666--77777777--4444--2222---| 
-00000000--44444444--55555555--2222---------|

-00000000-----------------------------------| 
-00000000-----------------------------------|
-11111111-----------------------------------| 
-22222222-----------------------------------| 
-22222222--66666666--77777777--44444444-----| 
-00000000--44444444--55555555--22222222-----|
[ Tab from: http://www.guitartabs.cc/tabs/k/karas_flowers/myself_tab.html ]
-00000000-------------------------------000----| 
-00000000-------------------------------000----|
-11111111-------------------------------111----| 
-22222222-------------------------------222----| 
-22222222--66666666--77777777--44444444-222----| 
-00000000--44444444--55555555--22222222-000----|


Breakdown


-------------------------------------------------| 
-12-------12--------12--------12--------12-------|
----12-13-----12-13-----12-13-----12-13----------| 
-------------------------------------------------| 
-------------------------------------------------| 
-------------------------------------------------| (x2)

Solo

------------------------------------------------912p9------| 
-11b11~----11b---11---9\6~---9-11-9----------9--------12p9-|
---------10------------------------------11b----------------| 
------------------------------------------------------------|
------------------------------------------------------------| 
------------------------------------------------------------|

---------------------------------------------------------9------|
-------------------------------------------------------9--------| 
-11b11p9----9---11b-------11b11~--11~--9~--11-911b-----------|
----------11----------10----------------------------------------| 
----------------------------------------------------------------|
----------------------------------------------------------------| 

Chorus

-00000000-----------------------------------| 
-00000000-----------------------------------|
-11111111-----------------------------------| 
-22222222----------------------------4444---| 
-22222222--66666666--77777777--4444--2222---| 
-00000000--44444444--55555555--2222---------|

-00000000-----------------------------------| 
-00000000-----------------------------------|
-11111111-----------------------------------| 
-22222222-----------------------------------| 
-22222222--66666666--77777777--44444444-----| 
-00000000--44444444--55555555--22222222-----|

Outro

-----0--------------------------------------------0-----------000| 
-----0--------------------------------------------0-----------000|
----------------------0------0------0-----0--------------2----111| 
--------------------2------2------1-----1--------------1------222| 
---2----------2---4------4------2-----2--------2-----2--------222| 
-0------02\4--------------------------------0----------------000|
Comments