Kapatid - Pagbabalik Ng Kwago Chords & Tabs

 

Pagbabalik Ng Kwago Chords & Tabs

Kapatid Chords & Tabs

Version: 1 Type: Tab 0 ratings
1 star 2 stars 3 stars 4 stars 5 stars
comments

Pagbabalik Ng Kwago Tab

"Pagbabalik ng kwago by Kapatid
transcribed by freongang

intro:

e--------------------------------------------------------|
b--------------------------------------------------------|
g------------------------------------------------7-7---5-|
d-5--5-7--3-3--5--5-7--3-3--5--5-7--3-3--5--5-7------7---|
a-5--5-7--3-3--5--5-7--3-3--5--5-7--3-3--5--5-7----------|
e-3--3-5--1-1--3--3-5--1-1--3--3-5--1-1--3--3-5----------|

e-------------------------------------------------|
b-------------------------------------------------|
g-------------------------------------------------|
d---2-1-----0----2-1-----------2-1------------1---|
a-0-----0-3----0-----0-3-5---0-----0-3-2--0-1-----|
e-------------------------------------------------|
[ Tab from: http://www.guitartabs.cc/tabs/k/kapatid/pagbabalik_ng_kwago_tab.html ]
dadalhin nya tayo sa paraiso.....  x4
e------------------------------------|
b------------------------------------|
g-5-5-5-5-5-5-5-5--3-3-3-3-3-3-3-3---|
d-5-5-5-5-5-5-5-5--3-3-3-3-3-3-3-3---|
a-3-3-3-3-3-3-3-3--1-1-1-1-1-1-1-1---|
e------------------------------------|

adlib:
e-----------------------------------|
b-7-7-7-7-7-7-7-7--9-9-9-9-9-9-9-9--|
g-7-7-7-7-7-7-7-7--9-9-9-9-9-9-9-9--|
d-----------------------------------|
a-----------------------------------|
e-----------------------------------|

e----------------------------------------------------|
b--12-12-12-12-12-12-12-12--15-15-15-15-15-15-15-15--|
g--12-12-12-12-12-12-12-12--15-15-15-15-15~15-15-15--|
d----------------------------------------------------|
a----------------------------------------------------|
e----------------------------------------------------|
                 

                        visit me at: 
                 freongang_81@yahoo.com
                 freongang_08@yahoo.com
Comments