Kanye West - Through The Wire Chords & Tabs

 

Through The Wire Chords & Tabs

Kanye West Chords & Tabs

Version: 1 Type: Bass Tab 1 rating
1 star 2 stars 3 stars 4 stars 5 stars
comments

Through The Wire Bass Tab

Through The Wire
Kanye West
Intro/Chorus
G-------------|------------------|---------------|---------------|-------------|-------------|
D-------------|------------------|------20-------|---------------|------5-3----|-------------|
A-7-----5---3-|(3333333333333333)|-0---0-----(0)-|---------------|3---------3--|2---3-5-7----|
E----5-----3--|------------------|---------------|3---1----0-----|------------1|-------------|
[ Tab from: http://www.guitartabs.cc/tabs/k/kanye_west/through_the_wire_btab.html ]
G------------|-------------|---------------|-----------|--------------|-------------|
D------------|--------2----|-------5--3----|-----------|--------5-----|-3-2-0-------|
A---0--------|---------2---|-3----------3--|2---3-5-7--|--------------|----------320|
E-----3--1---|--0-------0--|---------------|----------0|-1-----3------|-------------|

Verse (Repeat Until Chorus)
G----------------------|
D----------------------|
A--0(0)--0-3(3)-5---3--|
E------3---------------|

Almost all of the notes in the beginning are syncopated so just follow the beat.  Also,
for the verse there is like a slide from 3-5 and a kind of flip on 5 to 6 but im new at
this and i dont know how to notate that or any fancy whatnots....its a hip hop beat so it
basically stays the same throughout...
Comments