Kansas - Dust In The Wind Chords & Tabs

 

Dust In The Wind Chords & Tabs

Kansas Chords & Tabs

Version: 9 Type: Tab 0 ratings
1 star 2 stars 3 stars 4 stars 5 stars
comments

Dust In The Wind Tab

   
                            
                     DUST IN THE WIND		
                          KANSAS


Tab by:Omanyen@fusemail.com

This is a classic "forward roll" which everyone seems to
be getting wrong. Check the other tabs on this song and
notice mine includes the 3rd & 1st strings. It is really
very easy once you get the hang of it.You only use your
thumb & index finger of your right hand, with the thumb
allways picking down and the index finger allways pick-
ing up. I,ve also included the short bridge between the
verses and the one ending the chorus. Any questions or
comments or complaints, feel free to e-mail me.







INTRO :

   C  (add pinky on 2nd time around on the 2nd string)

--------0-------|-------0-------|------0------|-----0-------|
---1--------1---|--0--------0---|--3-------0--|-1-------1---|
------0-------0-|-----0-------0-|----0-------0|---0-------0-|
----------------|---------------|-------------|-------------|
---3------3-----|--3------3-----|--3-----3----|-3-----3-----|
----------------|---------------|-------------|-------------|
     
     Am

------0---------|------0--------|------0------|-----0-------|
--0-------0-----|--3-------3----|--1------1---|-0-------0---|
----2-------2---|----2-------2--|----2------2-|---2-------2-|
----------------|---------------|-------------|-------------|
--0-----0-------|--0-----0------|--0-----0----|-0-----0-----|
----------------|---------------|-------------|-------------|


[ Tab from: http://www.guitartabs.cc/tabs/k/kansas/dust_in_the_wind_tab_ver_9.html ]
I close      my             eyes

-----0----|------3-------|------0------|------0-------------|
--1----1--|--3-------3---|--0------0---|--0-------0---------|
----0---0-|----0-------0-|----2------2-|----2-------2-------|
----------|--------------|-------------|--------------------|
--3---3---|--2-----2-----|--0-----0----|--0-----0-----------|
----------|--------------|-------------|-------------------=|


  only  for a   moment and the moments gone 

------3------|------1-------|------0-------|------0---------|
--0------0---|--2------2----|--1------1----|--1-------1-----|
----0------0-|----2------2--|----2------2--|----2--------2--|
-------------|--3-----3-----|--------------|----------------|
-------------|--------------|--0-----0-----|--0-----0-------|
--3----3-----|--------------|--------------|---------------=|

     ( bridge )      h = hammer

                        all ...........

------------|--------|------0-------|
---0-h-1----|------0-|--1-------1---|
---------2--|--2-----|----0-------0-|
------------|--------|--------------|
---0--------|--0---2-|--3-----3-----|
------------|-----------------------|

CHORUS:  G   Am

all we are is dust in the wind   (bridge):
                 
                  same old song.........
--------|----|----------0-----------|
--0-h-1-|--3-|----1----------1------|
--------|----|-------0----------0---|
--------|----|----------------------|
--0-----|--2-|----3-------3---------|
--------|----|----------------------|
Comments