Kansas - Carry On Wayward Son Chords & Tabs

 

Carry On Wayward Son Chords & Tabs

Kansas Chords & Tabs

Version: 2 Type: Tab 0 ratings
1 star 2 stars 3 stars 4 stars 5 stars
comments

Carry On Wayward Son Tab

BIG MAIN THING:
E|----------------------------------------| 
B|----------------------------------------| 
G|-------------------0--------------------| 
D|---------------0-2---2-0---0---0--------| 
A|-0---0-3-0---0-----------3--------------|
E|---3-------3-----------------3---2------|
[ Tab from: http://www.guitartabs.cc/tabs/k/kansas/carry_on_wayward_son_tab_ver_2.html ]
SOMETIME LATER:
E|--------------------------------------| 
B|-----12-12--------------14-12---------| 
G|-----12-12---------0----14-12---------| 
D|-2-2-12-12-----0-2---2--14-12---------| 
A|-2-2-------0-2-------2----------------| 
E|-0-0-----------------0----------------|

this is all i really can get right since all the other ones 
are wrong and  tend to throw everyone off.
Comments