Kansas - Carry On Wayward Son Chords & Tabs

 

Carry On Wayward Son Chords & Tabs

Kansas Chords & Tabs

Version: 1 Type: Tab 9 ratings
1 star 2 stars 3 stars 4 stars 5 stars
comments

Carry On Wayward Son Tab

   

carry_on_wayward_son_w/solos.tab


      
      
#----------------------------------PLEASE NOTE---------------------------------#
#This file is the author's own work and represents their interpretation of the #
#song. You may only use this file for private study, scholarship, or research. #
#------------------------------------------------------------------------------##

Artist: Kansas
Song: Carry On Wayward Son
Tabbed by Pat McKibben (megadethworld@yahoo.com)
Tuning: E B G D A E (standard)

Riff 1:

e|-----------------------------------------------|
B|-----------------------------------------------|
G|-----------------------------------------------|
D|-------------------------5---------------------|
A|-------3~--------5~--5/7---7p5-3--5----5-------|
E|-5-3-5-----5-3-5--------------------3~---2~----|
					        X2
Riff 2:
					     
e|---------------------------------------------|
B|---------------------------------------------|
G|---------12-12~-----------------------14-12~-|
D|--2-2----12-12~----------5------2-2---14-12~-|
A|--2-2------------------5---5h7--2-2----------|
E|--0-0--------------5h7----------0-0----------|

e|---------------------------------------------|
B|---------------------------------------------|
G|---------------------------------------------|
D|--------5------------------------------------|
A|------5---5h7--------------------------------|
E|--5h7----------------------------------------|
					      X2

Solo 1:

e|-----------------------------------------------|
B|-----------------------------------------------|
G|--5~---7b9-5-----------------------------------|
D|--5~-----------7p5-----------------------------|
A|-------------------7p5---5b6r5b6r5-------------|
E|-----------------------8-----------------------|

e|-----------------------------------------------|
B|-----------------------------------------------|
G|-----------------------------------------------|
D|-----10p7p5-10p7p5-10p7p5-10p7p5-10p7p5-10p7p5-|
A|--10-------------------------------------------|
E|-----------------------------------------------|

e|-----------------17p15----17p15---20p17p15-----|
B|--------15b17-17-------17------17--------------|
G|-/17-------------------------------------------|
D|-----------------------------------------------|
A|-----------------------------------------------|
E|-----------------------------------------------|

e|-17p15-----------------------------------------|
B|-------17-15----15b17r15b17r15-----------------|
G|-------------17---------------------14p12------|
D|---------------------------------14-------14---|
A|-----------------------------------------------|
E|-----------------------------------------------|

e|-----------------------------------------------|
B|-----------------------------------------------|
G|-14p12-----------------------------------------|
D|-------14-14p12p10-12-10~----------------------|
A|-----------------------------------------------|
E|-----------------------------------------------|





e|------22b24-22b24------------------22b24-22b24|
B|----------------------------------------------|
G|---------12-12~-----------------------14-12~--|
D|--2-2----12-12~----------5------2-2---14-12~--|
A|--2-2------------------5---5h7--2-2-----------|
E|--0-0--------------5h7----------0-0-----------|

e|---------------------------------------------|
B|---------------------------------------------|
G|---------------------------------------------|
D|--------5------------------------------------|
A|------5---5h7--------------------------------|
E|--5h7----------------------------------------|

Riff 3:

Guitar 1
e|---------------------------------------------|
B|--5---5-8-5-8-8/10---------------------------|
G|----5----------------------------------------|
D|---------------------------------------------|
A|---------------------------------------------|
E|---------------------------------------------|

Guitar 2
e|---------------------------------------------|
B|---------------------------------------------|
G|---------------------------------------------|
D|---------------------------------------------|
A|--7---7-5---5-3------------------------------|
E|--5---5-3---3-1------------------------------|

Play Riff 1 X2

Riff 4:

e|---------------------------------------------|
B|---------------------------------------------|
G|---------------------------------------------|
D|---7p5---------------------------------------|
A|-0-----7p5-------5--------5--3~--------------|
E|-----------8p5-8----3--5---------------------|
[ Tab from: http://www.guitartabs.cc/tabs/k/kansas/carry_on_wayward_son_tab.html ]
e|---------------------------------------------|
B|---------------------------------------------|
G|---------------------------------------------|
D|---7p5---------------------------------------|
A|-0-----7p5-------5--------5~-----------------|
E|-----------8p5-8----3--5---------------------|
					      X2

Solo 2:

e|---------------------------------------------|
B|---------------------------------------------|
G|---------------------------------------------|
D|----------------------5----------------------|
A|-7--5--4--2--0------5------------------------|
E|----------------3----------------------------|

e|---------------------------------------------|
B|---------------------------------------------|
G|---------------------------------------------|
D|---------------------------------------------|
A|-7--5--4--2-5----------3---------------------|
E|---------------2--3--4-----------------------|

Play Riff 4 X2

Solo 3:

e|---------------------------------------------|
B|-20h22-20--19--17--15-12h15p12---------------|
G|-------------------------------14p12---------|
D|-------------------------------------14------|
A|---------------------------------------------|
E|---------------------------------------------| 

e|---------------------------------------------|
B|-------------12------------------------------|
G|-12-14p12----12------12h13p12----12----------|
D|----------14------14----------14----14-12----|
A|---------------------------------------------|
E|---------------------------------------------|

e|---------------------------------------------|
B|---------------------------------------------|
G|-12h13p12----12----------------12------------|
D|----------14----14-12----------12------------|
A|----------------------14-12------------------|
E|----------------------------15---------------|

Play Riff 1 X2

Riff 5:

e|---------------------------------------------|
B|---------------------------------------------|
G|---------------------------------------------|
D|---------------------------------------------|
A|-7-7----5--3---3-5-7-9--7-7----5--3---3-5-7-9|
E|-5-5----3--1---1-3-5-7--5-5----3--1---1-3-5-7|

e|---------------------------------------------|
B|---------------------------------------------|
G|-----7-------5-------3-----------------------|
D|---7-------5-------3-------------------------|
A|-5-----5-3-----3-1-----0--1--3--5--7---------|
E|---------------------------------------------|

e|---------------------------------------------|
B|---------------------------------------------|
G|-----7-------5-------------------------------|
D|---7-------5------5-5-5-5-5------------------|
A|-5-----5-3-----3--5-5-5-5-5------------------|
E|------------------3-3-3-3-3------------------|

Play Riff 2 X2

Solo 4:

e|---------------------------------------------|
B|-17b19r17b19r17b19-17b19r17-14-17p14---------|
G|-------------------------------------16-14---|
D|-------------------------------------------16|
A|---------------------------------------------|
E|---------------------------------------------|

e|----------------------------------------17b20|
B|-----------------14tr17-17b19(19)r17-14------|
G|-14-16-14----14------------------------------|
D|----------16---------------------------------|
A|---------------------------------------------|
E|---------------------------------------------|

e|r17-14h17p14-----------------------------------------|
B|--------------17b19r17-14-17b19----------------------|
G|--------------------------------16-14----------14-16-|
D|--------------------------------------16-14-16-------|
A|-----------------------------------------------------|
E|-----------------------------------------------------|

e|---------------------------------------------|
B|---------------------------------------------|
G|----------------------------------9--9-------|
D|-----7h9-9b11-9-7-9p7---7-9-9/11-11-11-------|
A|-7h9------------------9----------------------|
E|---------------------------------------------|

e|---------------------------------------------|
B|---------------------------------------------|
G|---------------------------------------------|
D|-9p7---9p7-----------------------------------|
A|-----9-----9-7~------------------------------|
E|---------------------------------------------|

Play Riff 2 X2

Solo 5:

e|----------------------------------------------------|
B|----------------------------------------------------|
G|-4b6r4-2-4-4b6r4--6tr9--9-6-------------------------|
D|----------------------------9-7-------7-9-9b11-9-7-9|
A|--------------------------------9-7-9---------------|
E|----------------------------------------------------|

e|----------------------------------17b19r17---------------|
B|-------17----------------------------------17b19-17------|
G|-16b18----18r16-14-16b18r16-16-14-------------------16-14|
D|---------------------------------------------------------|
A|---------------------------------------------------------|
E|---------------------------------------------------------|

Play Riff 3


Comments