Kane - Let It Be Chords & Tabs

 

Let It Be Chords & Tabs

Kane Chords & Tabs

Version: 1 Type: Chords 0 ratings
1 star 2 stars 3 stars 4 stars 5 stars
comments

Let It Be Chords

   
Let it be

Kane 
So glad you made it 

Ik call the cordís for this moment E, A, B, C# en C#min

Send me the correct chord names please!

   E      B     A     C#  C#min   
E|--0--|--2--|--0--|--4--|--4--| 
B|--0--|--2--|--0--|--4--|--5--| 
G|--1--|--4--|--2--|--6--|--6--|
D|--2--|--4--|--2--|--6--|--6--| 
A|--2--|--2--|--0--|--4--|--4--|
E|--0--|--2--|--0--|--4--|--4--| 


Intro: Acoustical 
          E             Bm-           Am-       Am-           E
E|---------------------------------------------------------------------| 
B|-------------0-----------2-----------0-------0---0-----------0-------| 
G|-----------1---1-------4---4-------2---2---1---1---1-------1---1-----|
D|---------2-------2---4-------4---2-------2-----------2---2-------2---| 
A|-------2-----------2-----------0-----------------------2-----------2-|
E|---------------------------------------------------------------------| 

      Bm-        Am-       Am-   
E|------------------------------------------------| 
B|-----2-----------0-------0---0------------------| 
G|---4---4-------2---2---1---1---1----------------| 2x
D|-4-------4---2-------2--------------------------| 
A|-----------0------------------------------------| 
E|------------------------------------------------| 
 

Verse
                                 E
Well the answer is always the same
          B           A
Wonít you please just let it be
                                    E
Cause Iíve been there and all I can say
           B          A 
Is that it slips away from me
                                E
with the memory of yesterday Ďs craze
    B      A       
She spends away from me
   B          A
So I canít go on
[ Tab from: http://www.guitartabs.cc/tabs/k/kane/let_it_be_crd.html ]
Verse
                           E
As cold as the void of the night
    B        A
The dark surrounding me
                         E
She leads me there every time
    B      A
As long as I can be
                                   E
And I drift but the thought of her eyes
       B        A 
She Ďs all that I can see
    B         A
But I will go on
 
Chorus
      B 
Every longing, every wisper 
      C#        C#m
Every song that never saw it coming
             A      E    A    E
She said its all so right
      B
Every cold night, every shiver
      C#     C#m
Every time I didnít feel it coming
                  A      E    A
And she said itís all so right

Verse
As hard and as cruel as can be
She moves away from me
Still I need to be hers every  time
With all that I can be
She calls in the deep of the night
She takes all Iíve got from me
So I canít go on

Chorus
Every longing, every wisper 
Every song that never saw it coming
Baby donít you know itís not alright..
Every cold night, every shiver
Every silent stream that she never listens
Itís not allright, not allright no no

Verse
She rides with the gods of the night
She moves the tides in me
She crushes the waves with her tighs
She always comes a part of me
But carries as sharp as a knive
How could she step away from me
How can you just walk away from me

Chorus
Every cold night, every wisper
Every silent scream but never listen
When you say its all right
Its not allrightÖno no 
Every last song, every shiver
Every dirty game when just isnít right 
It just isnít right..

Verse
She wakes up the dawn of the day
She takes my heart from me
Leaves me with nothing to say
Nothing left for me
With the fever of final goodbye
She spins away from me
So I canít go on,   I canít go on
Comments