Kamikazee - Ung Tagalog Chords & Tabs

 

Ung Tagalog Chords & Tabs

Kamikazee Chords & Tabs

Version: 5 Type: Tab 0 ratings
1 star 2 stars 3 stars 4 stars 5 stars
comments

Ung Tagalog Tab

   
Ung Tagalog

Kamikazee

|--------------------------------------------------|
|Tabbed by Don Michael Acelar De Leon, 15 years old|
|--------------------------------------------------|

donmichael001@yahoo.com

--------------------------------------------
Guitar 1--Electric, Fuzz Distortion (Rhythm)
Guitar 2--Electric, Distortion (Lead)
--------------------------------------------

Intro

Guitar 1 (Clean)

E|-x-----x-------x-------x--------------------|
B|-x-----x-------x-------x--------------------|
G|-7/9--9/11---11/13---13/14-------7-x--------|
D|-x-----x-------x-------x-----7-x-7-x--------| two times
A|-5/7--7/9-----9/11---11/12---7-x-5-x--------|
E|-0-----0-------0-------0-----5-x------------|

(Bass Slide, Add Distortion)


E|-x~-----x~---x~---|
B|-x~-----x~---x~---|
G|-9~-----x~---7~---| two times
D|-9~-----7~---7~---|
A|-7~-----7~---5~---|
E|-x~-----5~---x~---|

Guitar 1

E|-x~-----x~---x~---|
B|-x~-----x~---x~---|
G|-9~-----x~---7~---| two times
D|-9~-----7~---7~---|
A|-7~-----7~---5~---|
E|-x~-----5~---x~---|

Guitar 2

E|-x-----x-------x-------x--------------------|
B|-x-----x-------x-------x--------------------|
G|-7/9--9/11---11/13---13/14-------7-x--------|
D|-x-----x-------x-------x-----7-x-7-x--------| two times
A|-5/7--7/9-----9/11---11/12---7-x-5-x--------|
E|-0-----0-------0-------0-----5-x------------|

E|--x~~-|
B|--x~~-|
G|--9~~-|--(Hold, decrease volume)
D|--9~~-|
A|--7~~-|
E|--X~~-|


(Drum Intro, Volume Swell)

RIFF 1

Guitar 1
   
  E5    B5  C#5   G#5   A5  G#5   A5  B5
E|--------------------------------------------|
B|--------------------------------------------|
G|-9-x----------------------------------------|
D|-9-x--9-x--11-x--6-x--7-x--6-x--7-x--9------| two times 
A|-7-x--9-x--11-x--6-x--7-x--6-x--7-x--9------|
E|------7-x---9-x--4-x--5-x--4-x--5-x--7------|___
                                                  |
						  |
					 played at the same time
Guitar 2                                          |
						  |
   G#    F#     G#    Eb   E    Eb   E   F#       | 
E|--------------------------------------------|___|
B|--------------------------------------------|
G|-13-x--11-x--13-x---8-x--9-x--8-x--9-x-11---|
D|--x-x---x-x---x-x---x-x--x-x--x-x--x-x--x---| two times
A|-11-x---9-x--11-x---6-x--7-x--6-x--7-x--9---|
E|--------------------------------------------|

Verse

"Sampung Taon.."

Guitar 1				Guitar 2

E|-x-----x---x----------------------|	E|-xx-xx-----------------|
B|-x-----x---x----------------------|	B|-xx-xx----------------x|
G|-9-----x---x----------------------|	G|-99-8/9--9/11/9----11-x|
D|-9----11---7---9/8/9--------------|	D|-99-8/9--9/11/9----11-x|
A|-7----11---7---9/8/9-(four times)-|	A|-77-6/7--7/9/-7-----9-x|
E|-x-----9---5---7/6/7--------------|	E|-xx-xx-----------------|
   

"Inaraw-araw Mo!"--Do a pick slide in low E


Repeat Riff 1

Chorus

"Sana'y di na umasa pa.."

E|-x---x---x---x----|
B|-x---x---x---x----|
G|-9---x---x---x----| four times
D|-9---7--11---9----|
A|-7---7--11---9----|
E|-x---5---9---7----|

Interlude 1

Guitar 1

E|-x----x---x---x----|	
B|-x----x---x---x----|	
G|-9----x---x---x----|	
D|-9---11---7---9----|	
A|-7---11---7---9----|	
E|-x----9---5---7----|	

Lead-in (Guitar 2)

E|--------------------------------------------|
B|-5555-4455--5555-4455--5555-4455-77-55-44-55|
G|--------------------------------------------|
D|--------------------------------------------|
A|--------------------------------------------|
E|--------------------------------------------|
[ Tab from: http://www.guitartabs.cc/tabs/k/kamikazee/ung_tagalog_tab_ver_5.html ]
E|-----------------------------------7-------7-------|
B|-5555-4455-77-55-44-55-5555-4455-4---4-5-4--4-5--4-|
G|---------------------------------------------------|
D|---------------------------------------------------| (repeat)
A|---------------------------------------------------|
E|---------------------------------------------------|

Interlude 2

Guitar 2

E|----0-----0--------0------0--------0-----0------0-----0----|
B|------0-----0--------0------0--------0-----0------0-----0--|
G|-----------------------------------------------------------|
D|-----------------------------------------------------------| (repeat)
A|--7-----7--------4------4--------0-----0------2-----2------|
E|-----------------------------------------------------------|

"Pakinggan.."

E|----0-----0--------0------0--------0-----0------0-----0----|
B|------0-----0--------0------0--------0-----0------0-----0--|
G|-----------------------------------------------------------|
D|-----------------------------------------------------------| 
A|--7-----7--------4------4--------0-----0------2-----2------|
E|-----------------------------------------------------------|

"Kung biglaan.."

Guitar 1

E|-x----x---x---x----|--|	
B|-x----x---x---x----|	|
G|-9----x---x---x----|	Palm mute
D|-9---11---7---9----|	|
A|-7---11---7---9----|	|
E|-x----9---5---7----|--|

"Mamatay ka na.."

E|-x----x---x---x----|	
B|-x----x---x---x----|	
G|-9----x---x---x----|	
D|-9---11---7---9----|	
A|-7---11---7---9----|	
E|-x----9---5---7----|	

"Mamatay ka na agad!"

Jam

E|-x----x--x----x-x---x-x----|	
B|-x----x--x----x-x---x-x----|	
G|-9----x--x----x-x---x-x----|	
D|-9----9-11----6-7---5-9----|	
A|-7----9-11----6-7---5-9----|	
E|-x----7--9----4-5---7-7----|	
		      *	

*|755xxx| may also be played as |866xxx|

E|-x----x--x----x-x---x----------------|	
B|-x----x--x----x-x---x----------------|	
G|-9----x--x----x-x---x----------------|	
D|-9----9-11----6-7---5-9-8989-898989/-|	
A|-7----9-11----6-7---5-9-8989-898989/-|	
E|-x----7--9----4-5---7-7-6767-676767/-|	

Repeat Chorus

Repeat Riff 1

"Tama bang umasa pa.."

(Slowly)

"Bakit ba niloko mo..sinayang oras.."

   E5   B5  C#5   G#5   A5  G#5   F#5  B5
E|----------------------------------------|
B|----------------------------------------|
G|-9-x------------------------------------|
D|-9-x--9-x--11-x--6-x--7-x--6-x--4/--9~--| 
A|-7-x--9-x--11-x--6-x--7-x--6-x--4/--9~--|
E|------7-x---9-x--4-x--5-x--4-x--2/--7~--|

"ko.."

Guitar 1

E|-x----x---x---x----|	
B|-x----x---x---x----|	
G|-9----x---x---x----|	
D|-9---11---7---9----|	
A|-7---11---7---9----|	
E|-x----9---5---7----|

Lead-in (Guitar 2)

E|--------------------------------------------|
B|-5555-4455--5555-4455--5555-4455-77-55-44-55|
G|--------------------------------------------|
D|--------------------------------------------|
A|--------------------------------------------|
E|--------------------------------------------|

E|-----------------------------------7-------7-------|
B|-5555-4455-77-55-44-55-5555-4455-4---4-5-4--4-5--4-|
G|---------------------------------------------------|
D|---------------------------------------------------| (repeat)
A|---------------------------------------------------|
E|---------------------------------------------------|


Do a random tremolo lick on E.. It would fit just fine.

Makati Science High School Stage, July 2, 6 p.m.

My warmest thanks to:

Eric Ebia, Jr, Bassist and Friend, Assonance and Resonance
Hanz Billy John Magat, Drummer and Friend, Assonance and Resonance
Francis Vincent Co, Rhythm Guitarist and Best Friend, Assonance
Jodessa Piloton, Lead Vocalist and Best Friend, Assonance
Reinzy Colle, Math Genius and Best Friend
John Santos, Lead Guitarist, Master and Friend, Invictus
Janie Maye Mamangon (what-ever!)
Camille Vanessa Vidad (happy birthday!)
Maria Christina Santiago Reyes (reply-an mo naman ako!)

And...

J.A.S.B. 2004
Comments