Kamikazee - Ung Tagalog Chords & Tabs

 

Ung Tagalog Chords & Tabs

Kamikazee Chords & Tabs

Version: 4 Type: Tab 0 ratings
1 star 2 stars 3 stars 4 stars 5 stars
comments

Ung Tagalog Tab

Artist:Kamikaze
Title:Ung Tagalog
Tabbed by:Mathew A.(RoCk3r_GuItArIsT)
Cel n#:09195913345(For any comments)
Email:rock3r_guitarist@yahoo.com(Friendster)

INTRO (Light Disto)
|------------------------------------------------------------|
|------------------------------------------------------------|
|7/9-99/11-11-11/11--11-11/-12-12--------7-7x7-7-------------|
|x/x-xx/x--x--x-/-x---x--x/--x--x---7-7--7-7x7-7-------------|2x
|5/7-77/9--9--9-/13--13-13/-14-14---7-7--5-5x5-5-------------|
|-----------------------------------5-5----------------------|

Distortion ON
|------------------------------------|
|------------------------------------|
|9-9-9-9-9-9-9-9-------7-7x7-7-------|
|9-9-9-9-9-9-9-9--7-7--7-7x7-7-------|2x
|7-7-7-7-7-7-7-7--7-7--5-5x5-5-------|
|-----------------5-5----------------|

Then do this part again with distortion
|------------------------------------------------------------|
|------------------------------------------------------------|
|7/9-99/11-11-11/11--11-11/-12-12--------7-7x7-7-------------|
|x/x-xx/x--x--x-/-x---x--x/--x--x---7-7--7-7x7-7-------------|2x
|5/7-77/9--9--9-/13--13-13/-14-14---7-7--5-5x5-5-------------|
|-----------------------------------5-5----------------------|

|-----------------------------------------|
|-----------------------------------------|
|-9---------------------------------------|
|-9--9-9--10-10--6-6-7-7-6-6-7-7-9-9------|2x
|-7--9-9--10-10--6-6-7-7-6-6-7-7-9-9------|
|----7-7--9--9---4-4-5-5-4-4-5-5-7-7------|


Verse(Strum the power chord E) Gtr.1
|------------------------------------|
|------------------------------------|
|999999999--9-9-9-9-9-9-9-9----------|
|999999999--9-9-9-9-9-9-9-9----------|
|777777777--7-7-7-7-7-7-7-7----------|
|------------------------------------|
"10 taon"   "Kung ano ang gus2 mo"

Gtr.2(Just repeat it,just figure out the timing)
|----------------------------------------|
|----------------------------------------|
|9999999999/8/999999999\8/999999999999---|
|xxxxxxxxxx/x/xxxxxxxxx\x/xxxxxxxxxxxx---|
|7777777777/6/777777777\6/777777777777---|
|----------------------------------------|

Another Part
|-----------------------------------------|
|-----------------------------------------|
|-9---------------------------------------|
|-9--9-9--10-10--6-6-7-7-6-6-7-7-9-9------|2x
|-7--9-9--10-10--6-6-7-7-6-6-7-7-9-9------|
|----7-7--9--9---4-4-5-5-4-4-5-5-7-7------|

"Sana'y di na umasa pa"
|------------------------------------|
|------------------------------------|
|-9-9-9------------------------------|
|-9-9-9-9-9-9--10-10--6-6-6--7-7-----|4x
|-7-7-7-9-9-9--10-10--6-6-6--7-7-----|
|-------7-7-7--9--9---4-4-4--5-5-----|


|----------------------------------------|
|----------------------------------------|
|999999\8/999999\8/999999\8/11-9-8-9-----|
|xxxxxx\x/xxxxxx\x/xxxxxx\x/-x-x-x-x-----|3 or 4x
|777777\6/777777\6/777777\6/-9-7-6-7-----|
|----------------------------------------|
[ Tab from: http://www.guitartabs.cc/tabs/k/kamikazee/ung_tagalog_tab_ver_4.html ]
"Pakinggan ang aking sasabihin" Gtr.1
|---------------------------------------------------|
|---------------------------------------------------|
|-9-----9-----9-----9-----9-----9---9-9-9-9-9-9-----|
|---9-----9-----9-----9-----9----9--9-9-9-9-9-9-----|
|7-----7----7-----7-----7-----7-----7-7-7-7-7-7-----|
|---------------------------------------------------|

"Kung Biglaan ika'y aking iwanan" Gtr.2 Palm Mute
(Gtr.1 continue play his part)
|--------------------------------------------------------------------|
|--------------------------------------------------------------------|
|999999999-----------------------------------------------------------|
|999999999-999999999--10-10-10-10-10-10-10-10---666666--777777-------|
|777777777-999999999--10-10-10-10-10-10-10-10---666666--777777-------|
|----------777777777--9--9--9--9--9--9--9--9----444444--555555-------|

"Mamatay ka na!" 
|------------------------------------|
|------------------------------------|
|9-9-9-9-9-9-9-9-9-9-9-9-9-9-9-9-----|
|9-9-9-9-9-9-9-9-9-9-9-9-9-9-9-9-----|
|7-7-7-7-7-7-7-7-7-7-7-7-7-7-7-7-----|
|------------------------------------|

Gtr.1
|-------------------------------------|
|-------------------------------------|
|9------------------------------------|
|9----9---10----4--7---7---9----------|
|7----9---10----4--7---7---9----------|
|-----7---9-----6--5---5---7----------|

Gtr.2(Gtr.2 joins Gtr.1 at the second time)
|------------------------------------|
|------------------------------------|
|9-9-9-9-9-9-9-9-9-9-9-9-9-9-9-9-9---|
|x-x-x-x-x-x-x-x-x-x-x-x-x-x-x-x-x---|
|7-7-7-7-7-7-7-7-7-7-7-7-7-7-7-7-7---|
|------------------------------------|

Gtr.1 and Gtr.2
|------------------------------------|
|------------------------------------|
|------------------------------------|
|9-9-9-9-9-9-9--9-9-9-9-9------------|
|9-9-9-9-9-9-9--9-9-9-9-9------------|
|7-0-7-0-7-0-7--7-0-7-0-7------------|

"Sana'y di na umasa pa"
|------------------------------------|
|------------------------------------|
|-9-9-9------------------------------|
|-9-9-9-9-9-9--10-10--6-6-6--7-7-----|4x
|-7-7-7-9-9-9--10-10--6-6-6--7-7-----|
|-------7-7-7--9--9---4-4-4--5-5-----|

"Bakit ka ganyan sinta wala ka bng nadarama"
|-----------------------------------------|
|-----------------------------------------|
|-9---------------------------------------|
|-9--9-9--10-10--6-6-7-7-6-6-7-7-9-9------|2x
|-7--9-9--10-10--6-6-7-7-6-6-7-7-9-9------|
|----7-7--9--9---4-4-5-5-4-4-5-5-7-7------|

Outro
Gtr.1 and Gtr.2
|----------------------------------------|
|----------------------------------------|
|999999\8/999999\8/999999\8/11-9-8-9-----|
|xxxxxx\x/xxxxxx\x/xxxxxx\x/-x-x-x-x-----|
|777777\6/777777\6/777777\6/-9-7-6-7-----|
|----------------------------------------|

The outro chords
|-----------------------|
|-----------------------|
|9-9-9-9-9-9-9--9~------|
|9-9-9-9-9-9-9--7~------|
|7-7-7-7-7-7-7--7~------|
|-----------------------|

Kala ko nung una walang kamikaze d2 sa Ug,meron pala
Rock Rulez!
Comments