Kamikazee - Ung Tagalog Chords & Tabs

 

Ung Tagalog Chords & Tabs

Kamikazee Chords & Tabs

Version: 2 Type: Tab 0 ratings
1 star 2 stars 3 stars 4 stars 5 stars
comments

Ung Tagalog Tab

   
-------------------------------------------------------------------------------
			     ung tagalog - kamikaze
-------------------------------------------------------------------------------

Artist: kamikazee 1st punk-rock here in the phil.! BELIEVE ME!
Title: Ung Tagalog
Album: wala, pirated kasi nabili ko eh! Hahaha... 
Transcribed by: Jan Francis ‘Flip’ Jimenez

Standard Tuning (e B G D A e)
Legend:
: - Pause .5 sec.
* - Palm mute
/ - Slide up
\ - Slide down
^ - Hammer
Intro: 
e|---------------------------------------------|
B|---------------------------------------------|
G|---------------------------------------------|
D|--------------------------------------7777---|
A|-0-7^9—99/-11-11-11/13—1313/14---777:-5555---|
E|-------------------------------0-555:--------|

Riff1 ...wait few bars
e|------------------------------------------|
B|------------------------------------------|
G|------------------------------------------|
D|------------------------------------------|
A|--5-------9-10-9-10--12-12----------------|
E|----5--7----------------------------------|

Stanza
e|------------------------------------------|
B|------------------------------------------|
G|------------------------------------------|
D|---777------------------------------------|
A|---555...-777----999----555---------------|
E|----------555...-777...—333...------------|
     ***    ***    ***    ***
[ Tab from: http://www.guitartabs.cc/tabs/k/kamikazee/ung_tagalog_tab_ver_2.html ]
Chorus: 
e|------------------------------------------|
B|------------------------------------------|
G|------------------------------------------|
D|---777------------------------------------|
A|---555...-777----999----555---------------|
E|----------555...-777...—333...------------|


Adlib
Repeat 8x
e|---------------------------|
B|------------5--------------|
G|-----77-6-7---7-6-7--------|
D|---------------------------|
A----------------------------|
E|---------------------------|
Bridge: 
Guitar2 Repeat 5x
e|-------------------------------------------|
B|-------------------------------------------|
G|---7---7-7---7--7--7---7--7--7-----7--7--7-|
D|-----7--7------7-7-------7--7-------7--7---|
A|-5------------------------------0----------|
E|-----------5---------7---------------------|

 
Guitar1 1st part
e|-----------|
B|-----------|
G|-----------|
D|-777777...-|
A|-555555...-|
E|-----------|
   ******

Guitar1 
e|-----------------------|
B|-----------------------|
G|-----------------------|
D|-777-------------------|
A|-555...-777----999-555-|
E|--------555...-777—333-|
   ***    ***    *** ***   
 
Song structure:
Intro riff
Stanza 
Riff
Stanza 
Chorus
Adlib 
Bridge guitar2
Guitar1 fill after 3x guitar2  
Drum machine
Chorus 
Riff
Adlib 

Hi sa mga thrasher & pro skater sa Davao esp. sa taga Panabo City. You can send
me pictures of skaters or any thing about skateboard & I can send you my tabs,
trade. Email me at www.francisflip@yahoo.com or txt me at 09174973421 or 09193525545 ok?
                  kAEz love you!
Comments